  0
SECTION
  2
HEADER
  9
$ACADVER
  1
AC1014
  9
$ACADMAINTVER
 70
     9
  9
$DWGCODEPAGE
  3
UNDEFINED
  9
$INSBASE
 10
0.0
 20
0.0
 30
0.0
  9
$EXTMIN
 10
1.000000000000000E+20
 20
1.000000000000000E+20
 30
1.000000000000000E+20
  9
$EXTMAX
 10
-1.000000000000000E+20
 20
-1.000000000000000E+20
 30
-1.000000000000000E+20
  9
$LIMMIN
 10
0.0
 20
0.0
  9
$LIMMAX
 10
12.0
 20
9.0
  9
$ORTHOMODE
 70
     0
  9
$REGENMODE
 70
     1
  9
$FILLMODE
 70
     1
  9
$QTEXTMODE
 70
     0
  9
$MIRRTEXT
 70
     1
  9
$DRAGMODE
 70
     2
  9
$LTSCALE
 40
1.0
  9
$OSMODE
 70
    37
  9
$ATTMODE
 70
     1
  9
$TEXTSIZE
 40
0.2
  9
$TRACEWID
 40
0.05
  9
$TEXTSTYLE
  7
STANDARD
  9
$CLAYER
  8
0
  9
$CELTYPE
  6
BYLAYER
  9
$CECOLOR
 62
   256
  9
$CELTSCALE
 40
1.0
  9
$DELOBJ
 70
     1
  9
$DISPSILH
 70
     0
  9
$DIMSCALE
 40
1.0
  9
$DIMASZ
 40
0.18
  9
$DIMEXO
 40
0.0625
  9
$DIMDLI
 40
0.38
  9
$DIMRND
 40
0.0
  9
$DIMDLE
 40
0.0
  9
$DIMEXE
 40
0.18
  9
$DIMTP
 40
0.0
  9
$DIMTM
 40
0.0
  9
$DIMTXT
 40
0.18
  9
$DIMCEN
 40
0.09
  9
$DIMTSZ
 40
0.0
  9
$DIMTOL
 70
     0
  9
$DIMLIM
 70
     0
  9
$DIMTIH
 70
     1
  9
$DIMTOH
 70
     1
  9
$DIMSE1
 70
     0
  9
$DIMSE2
 70
     0
  9
$DIMTAD
 70
     0
  9
$DIMZIN
 70
     0
  9
$DIMBLK
  1

  9
$DIMASO
 70
     1
  9
$DIMSHO
 70
     1
  9
$DIMPOST
  1

  9
$DIMAPOST
  1

  9
$DIMALT
 70
     0
  9
$DIMALTD
 70
     2
  9
$DIMALTF
 40
25.4
  9
$DIMLFAC
 40
1.0
  9
$DIMTOFL
 70
     0
  9
$DIMTVP
 40
0.0
  9
$DIMTIX
 70
     0
  9
$DIMSOXD
 70
     0
  9
$DIMSAH
 70
     0
  9
$DIMBLK1
  1

  9
$DIMBLK2
  1

  9
$DIMSTYLE
  2
STANDARD
  9
$DIMCLRD
 70
     0
  9
$DIMCLRE
 70
     0
  9
$DIMCLRT
 70
     0
  9
$DIMTFAC
 40
1.0
  9
$DIMGAP
 40
0.09
  9
$DIMJUST
 70
     0
  9
$DIMSD1
 70
     0
  9
$DIMSD2
 70
     0
  9
$DIMTOLJ
 70
     1
  9
$DIMTZIN
 70
     0
  9
$DIMALTZ
 70
     0
  9
$DIMALTTZ
 70
     0
  9
$DIMFIT
 70
     3
  9
$DIMUPT
 70
     0
  9
$DIMUNIT
 70
     2
  9
$DIMDEC
 70
     4
  9
$DIMTDEC
 70
     4
  9
$DIMALTU
 70
     2
  9
$DIMALTTD
 70
     2
  9
$DIMTXSTY
  7
STANDARD
  9
$DIMAUNIT
 70
     0
  9
$LUNITS
 70
     2
  9
$LUPREC
 70
     4
  9
$SKETCHINC
 40
0.1
  9
$FILLETRAD
 40
0.5
  9
$AUNITS
 70
     0
  9
$AUPREC
 70
     0
  9
$MENU
  1
.
  9
$ELEVATION
 40
0.0
  9
$PELEVATION
 40
0.0
  9
$THICKNESS
 40
0.0
  9
$LIMCHECK
 70
     0
  9
$CHAMFERA
 40
0.0
  9
$CHAMFERB
 40
0.0
  9
$CHAMFERC
 40
0.0
  9
$CHAMFERD
 40
0.0
  9
$SKPOLY
 70
     0
  9
$TDCREATE
 40
2457590.523784722
  9
$TDUPDATE
 40
2457590.523784722
  9
$TDINDWG
 40
0.0000000116
  9
$TDUSRTIMER
 40
0.0000000116
  9
$USRTIMER
 70
     1
  9
$ANGBASE
 50
0.0
  9
$ANGDIR
 70
     0
  9
$PDMODE
 70
     0
  9
$PDSIZE
 40
0.0
  9
$PLINEWID
 40
0.0
  9
$COORDS
 70
     1
  9
$SPLFRAME
 70
     0
  9
$SPLINETYPE
 70
     6
  9
$SPLINESEGS
 70
     8
  9
$ATTDIA
 70
     0
  9
$ATTREQ
 70
     1
  9
$HANDLING
 70
     1
  9
$HANDSEED
  5
1000014F
  9
$SURFTAB1
 70
     6
  9
$SURFTAB2
 70
     6
  9
$SURFTYPE
 70
     6
  9
$SURFU
 70
     6
  9
$SURFV
 70
     6
  9
$UCSNAME
  2

  9
$UCSORG
 10
0.0
 20
0.0
 30
0.0
  9
$UCSXDIR
 10
1.0
 20
0.0
 30
0.0
  9
$UCSYDIR
 10
0.0
 20
1.0
 30
0.0
  9
$PUCSNAME
  2

  9
$PUCSORG
 10
0.0
 20
0.0
 30
0.0
  9
$PUCSXDIR
 10
1.0
 20
0.0
 30
0.0
  9
$PUCSYDIR
 10
0.0
 20
1.0
 30
0.0
  9
$USERI1
 70
     0
  9
$USERI2
 70
     0
  9
$USERI3
 70
     0
  9
$USERI4
 70
     0
  9
$USERI5
 70
     0
  9
$USERR1
 40
0.0
  9
$USERR2
 40
0.0
  9
$USERR3
 40
0.0
  9
$USERR4
 40
0.0
  9
$USERR5
 40
0.0
  9
$WORLDVIEW
 70
     1
  9
$SHADEDGE
 70
     3
  9
$SHADEDIF
 70
    70
  9
$TILEMODE
 70
     1
  9
$MAXACTVP
 70
    64
  9
$PINSBASE
 10
0.0
 20
0.0
 30
0.0
  9
$PLIMCHECK
 70
     0
  9
$PEXTMIN
 10
1.000000000000000E+20
 20
1.000000000000000E+20
 30
1.000000000000000E+20
  9
$PEXTMAX
 10
-1.000000000000000E+20
 20
-1.000000000000000E+20
 30
-1.000000000000000E+20
  9
$PLIMMIN
 10
0.0
 20
0.0
  9
$PLIMMAX
 10
12.0
 20
9.0
  9
$UNITMODE
 70
     0
  9
$VISRETAIN
 70
     1
  9
$PLINEGEN
 70
     0
  9
$PSLTSCALE
 70
     1
  9
$TREEDEPTH
 70
  3020
  9
$PICKSTYLE
 70
     1
  9
$CMLSTYLE
  2
STANDARD
  9
$CMLJUST
 70
     0
  9
$CMLSCALE
 40
1.0
  9
$PROXYGRAPHICS
 70
     1
  9
$MEASUREMENT
 70
     0
  0
ENDSEC
  0
SECTION
  2
CLASSES
  0
CLASS
  1
ACDBDICTIONARYWDFLT
  2
AcDbDictionaryWithDefault
  3
ObjectDBX Classes
 90
        0
280
     0
281
     0
  0
CLASS
  1
VISUALSTYLE
  2
AcDbVisualStyle
  3
ObjectDBX Classes
 90
     4095
280
     0
281
     0
  0
CLASS
  1
MATERIAL
  2
AcDbMaterial
  3
ObjectDBX Classes
 90
     1153
280
     0
281
     0
  0
CLASS
  1
SCALE
  2
AcDbScale
  3
ObjectDBX Classes
 90
     1153
280
     0
281
     0
  0
CLASS
  1
TABLESTYLE
  2
AcDbTableStyle
  3
ObjectDBX Classes
 90
     4095
280
     0
281
     0
  0
CLASS
  1
MLEADERSTYLE
  2
AcDbMLeaderStyle
  3
ACDB_MLEADERSTYLE_CLASS
 90
     4095
280
     0
281
     0
  0
CLASS
  1
SUN
  2
AcDbSun
  3
SCENEOE
 90
     1153
280
     0
281
     0
  0
CLASS
  1
SORTENTSTABLE
  2
AcDbSortentsTable
  3
ObjectDBX Classes
 90
        0
280
     0
281
     0
  0
CLASS
  1
DICTIONARYVAR
  2
AcDbDictionaryVar
  3
ObjectDBX Classes
 90
        0
280
     0
281
     0
  0
CLASS
  1
XRECORD
  2
AcDbXrecord
  3
ObjectDBX Classes
 90
        0
280
     0
281
     0
  0
CLASS
  1
LWPOLYLINE
  2
AcDbPolyline
  3
ObjectDBX Classes
 90
        0
280
     0
281
     1
  0
CLASS
  1
HATCH
  2
AcDbHatch
  3
ObjectDBX Classes
 90
        0
280
     0
281
     1
  0
CLASS
  1
ACDBPLACEHOLDER
  2
AcDbPlaceHolder
  3
ObjectDBX Classes
 90
        0
280
     0
281
     0
  0
CLASS
  1
LAYOUT
  2
AcDbLayout
  3
ObjectDBX Classes
 90
        0
280
     0
281
     0
  0
ENDSEC
  0
SECTION
  2
TABLES
  0
TABLE
  2
VPORT
  5
8
102
{ACAD_XDICTIONARY
360
10000144
102
}
330
0
100
AcDbSymbolTable
 70
     1
  0
VPORT
  5
29
330
8
100
AcDbSymbolTableRecord
100
AcDbViewportTableRecord
  2
*ACTIVE
 70
     0
 10
0.0
 20
0.0
 11
1.0
 21
1.0
 12
10.42990654205607
 22
4.5
 13
0.0
 23
0.0
 14
0.5
 24
0.5
 15
0.5
 25
0.5
 16
0.0
 26
0.0
 36
1.0
 17
0.0
 27
0.0
 37
0.0
 40
9.0
 41
1.972972972850329
 42
50.0
 43
0.0
 44
0.0
 50
0.0
 51
0.0
 71
     0
 72
   100
 73
     1
 74
     3
 75
     0
 76
     0
 77
     0
 78
     0
  0
ENDTAB
  0
TABLE
  2
LTYPE
  5
5
330
0
100
AcDbSymbolTable
 70
     6
  0
LTYPE
  5
14
330
5
100
AcDbSymbolTableRecord
100
AcDbLinetypeTableRecord
  2
BYBLOCK
 70
     0
  3

 72
    65
 73
     0
 40
0.0
  0
LTYPE
  5
15
330
5
100
AcDbSymbolTableRecord
100
AcDbLinetypeTableRecord
  2
BYLAYER
 70
     0
  3

 72
    65
 73
     0
 40
0.0
  0
LTYPE
  5
16
330
5
100
AcDbSymbolTableRecord
100
AcDbLinetypeTableRecord
  2
CONTINUOUS
 70
     0
  3
Solid line
 72
    65
 73
     0
 40
0.0
  0
LTYPE
  5
10000023
330
5
100
AcDbSymbolTableRecord
100
AcDbLinetypeTableRecord
  2
HIDDEN
 70
     0
  3
Hidden line ____ ____ ____ ____ 
 72
    83
 73
     2
 40
0.125
 49
0.25
 74
     0
 49
-0.125
 74
     0
  0
LTYPE
  5
10000024
330
5
100
AcDbSymbolTableRecord
100
AcDbLinetypeTableRecord
  2
ONS_PHANTOM
 70
     0
  3
Onshape Phantom line ______ __ __ ______
 72
    83
 73
     6
 40
0.8250000000000002
 49
0.75
 74
     0
 49
-0.075
 74
     0
 49
0.15
 74
     0
 49
-0.075
 74
     0
 49
0.15
 74
     0
 49
-0.075
 74
     0
  0
LTYPE
  5
10000025
330
5
100
AcDbSymbolTableRecord
100
AcDbLinetypeTableRecord
  2
CENTER
 70
     0
  3
Center line ____ _ ____ _ ____ _
 72
    83
 73
     4
 40
0.36
 49
0.45
 74
     0
 49
-0.09
 74
     0
 49
0.09
 74
     0
 49
-0.09
 74
     0
  0
LTYPE
  5
10000026
330
5
100
AcDbSymbolTableRecord
100
AcDbLinetypeTableRecord
  2
DASHED
 70
     0
  3
Dashed line __ __ __ __ __
 72
    83
 73
     2
 40
0.25
 49
0.5
 74
     0
 49
-0.25
 74
     0
  0
LTYPE
  5
10000027
330
5
100
AcDbSymbolTableRecord
100
AcDbLinetypeTableRecord
  2
ONS_DASHDOT
 70
     0
  3
Onshape Dashed with Dot _ . ____ . ____
 72
    83
 73
     4
 40
0.3100000000000001
 49
0.5
 74
     0
 49
-0.1
 74
     0
 49
0.01
 74
     0
 49
-0.1
 74
     0
  0
ENDTAB
  0
TABLE
  2
LAYER
  5
2
330
0
100
AcDbSymbolTable
 70
    14
  0
LAYER
  5
10
330
2
100
AcDbSymbolTableRecord
100
AcDbLayerTableRecord
  2
0
 70
     0
 62
     7
  6
CONTINUOUS
  0
LAYER
  5
10000028
330
2
100
AcDbSymbolTableRecord
100
AcDbLayerTableRecord
  2
HIDDEN
 70
     0
 62
    -7
  6
HIDDEN
  0
LAYER
  5
10000029
330
2
100
AcDbSymbolTableRecord
100
AcDbLayerTableRecord
  2
VISIBLE
 70
     0
 62
     7
  6
CONTINUOUS
  0
LAYER
  5
1000002A
330
2
100
AcDbSymbolTableRecord
100
AcDbLayerTableRecord
  2
TANGENT_LINES
 70
     0
 62
     7
  6
CONTINUOUS
  0
LAYER
  5
1000002B
330
2
100
AcDbSymbolTableRecord
100
AcDbLayerTableRecord
  2
TANGENT_HIDDEN
 70
     0
 62
    -7
  6
HIDDEN
  0
LAYER
  5
1000002C
330
2
100
AcDbSymbolTableRecord
100
AcDbLayerTableRecord
  2
INVISIBLE_LINES
 70
     0
 62
    -7
  6
CONTINUOUS
  0
LAYER
  5
1000002D
330
2
100
AcDbSymbolTableRecord
100
AcDbLayerTableRecord
  2
VIEW_HATCHES
 70
     0
 62
     7
  6
CONTINUOUS
  0
LAYER
  5
1000002E
330
2
100
AcDbSymbolTableRecord
100
AcDbLayerTableRecord
  2
SECTION_CUTTING_LINE
 70
     0
 62
     7
  6
ONS_PHANTOM
  0
LAYER
  5
1000002F
330
2
100
AcDbSymbolTableRecord
100
AcDbLayerTableRecord
  2
DETAIL_VIEW_BORDER
 70
     0
 62
     7
  6
CONTINUOUS
  0
LAYER
  5
10000030
330
2
100
AcDbSymbolTableRecord
100
AcDbLayerTableRecord
  2
DETAIL_VIEW_PARENT_BORDER
 70
     0
 62
     7
  6
ONS_PHANTOM
  0
LAYER
  5
10000031
330
2
100
AcDbSymbolTableRecord
100
AcDbLayerTableRecord
  2
TEXT
 70
     0
 62
     7
  6
CONTINUOUS
  0
LAYER
  5
10000032
330
2
100
AcDbSymbolTableRecord
100
AcDbLayerTableRecord
  2
SKETCHED_GEOMETRY
 70
     0
 62
     7
  6
CONTINUOUS
  0
LAYER
  5
10000033
330
2
100
AcDbSymbolTableRecord
100
AcDbLayerTableRecord
  2
CENTERLINES
 70
     0
 62
     7
  6
CENTER
  0
LAYER
  5
10000034
330
2
100
AcDbSymbolTableRecord
100
AcDbLayerTableRecord
  2
CENTERMARKS
 70
     0
 62
     7
  6
CONTINUOUS
  0
ENDTAB
  0
TABLE
  2
STYLE
  5
3
330
0
100
AcDbSymbolTable
 70
     2
  0
STYLE
  5
11
330
3
100
AcDbSymbolTableRecord
100
AcDbTextStyleTableRecord
  2
STANDARD
 70
     0
 40
0.0
 41
1.0
 50
0.0
 71
     0
 42
0.2
  3
txt
  4

  0
STYLE
  5
10000003
330
3
100
AcDbSymbolTableRecord
100
AcDbTextStyleTableRecord
  2
TTFSTYLE
 70
     0
 40
0.0
 41
1.0
 50
0.0
 71
     0
 42
0.2
  3
Verdana.ttf
  4

1001
ACAD
1000
Verdana
1071
       34
  0
ENDTAB
  0
TABLE
  2
VIEW
  5
6
330
0
100
AcDbSymbolTable
 70
     0
  0
ENDTAB
  0
TABLE
  2
UCS
  5
7
330
0
100
AcDbSymbolTable
 70
     0
  0
ENDTAB
  0
TABLE
  2
APPID
  5
9
330
0
100
AcDbSymbolTable
 70
     2
  0
APPID
  5
12
330
9
100
AcDbSymbolTableRecord
100
AcDbRegAppTableRecord
  2
ACAD
 70
     0
  0
APPID
  5
1000014E
330
9
100
AcDbSymbolTableRecord
100
AcDbRegAppTableRecord
  2
ACAD_MLEADERVER
 70
     0
  0
ENDTAB
  0
TABLE
  2
DIMSTYLE
  5
A
330
0
100
AcDbSymbolTable
 70
     1
  0
DIMSTYLE
105
27
330
A
100
AcDbSymbolTableRecord
100
AcDbDimStyleTableRecord
  2
STANDARD
 70
     0
  3

  4

  5

  6

  7

 40
1.0
 41
0.18
 42
0.0625
 43
0.38
 44
0.18
 45
0.0
 46
0.0
 47
0.0
 48
0.0
140
0.18
141
0.09
142
0.0
143
25.4
144
1.0
145
0.0
146
1.0
147
0.09
 71
     0
 72
     0
 73
     1
 74
     1
 75
     0
 76
     0
 77
     0
 78
     0
170
     0
171
     2
172
     0
173
     0
174
     0
175
     0
176
     0
177
     0
178
     0
270
     2
271
     4
272
     4
273
     2
274
     2
340
11
275
     0
280
     0
281
     0
282
     0
283
     1
284
     0
285
     0
286
     0
287
     3
288
     0
  0
ENDTAB
  0
TABLE
  2
BLOCK_RECORD
  5
1
330
0
100
AcDbSymbolTable
 70
     1
  0
BLOCK_RECORD
  5
1F
102
{ACAD_XDICTIONARY
360
10000119
102
}
330
1
100
AcDbSymbolTableRecord
100
AcDbBlockTableRecord
  2
*MODEL_SPACE
  0
BLOCK_RECORD
  5
1B
330
1
100
AcDbSymbolTableRecord
100
AcDbBlockTableRecord
  2
*PAPER_SPACE
  0
ENDTAB
  0
ENDSEC
  0
SECTION
  2
BLOCKS
  0
BLOCK
  5
20
330
1F
100
AcDbEntity
  8
0
100
AcDbBlockBegin
  2
*MODEL_SPACE
 70
     0
 10
0.0
 20
0.0
 30
0.0
  3
*MODEL_SPACE
  1

  0
ENDBLK
  5
21
330
1F
100
AcDbEntity
  8
0
100
AcDbBlockEnd
  0
BLOCK
  5
1C
330
1B
100
AcDbEntity
 67
     1
  8
0
100
AcDbBlockBegin
  2
*PAPER_SPACE
 70
     0
 10
0.0
 20
0.0
 30
0.0
  3
*PAPER_SPACE
  1

  0
ENDBLK
  5
1D
330
1B
100
AcDbEntity
 67
     1
  8
0
100
AcDbBlockEnd
  0
ENDSEC
  0
SECTION
  2
ENTITIES
  0
LINE
  5
F42AC
102
{ACAD_XDICTIONARY
360
10000035
102
}
330
1F
100
AcDbEntity
  8
VISIBLE
100
AcDbLine
 10
-4.383005348481535
 20
-1.578843546081878
 30
0.0
 11
-4.470653336162102
 21
-2.02303465386249
 31
0.0
  0
LINE
  5
F42AD
102
{ACAD_XDICTIONARY
360
10000037
102
}
330
1F
100
AcDbEntity
  8
VISIBLE
100
AcDbLine
 10
-4.470653336162114
 20
-2.023034653862485
 30
0.0
 11
-2.539387650159447
 21
-2.404112861169302
 31
0.0
  0
LINE
  5
F42AE
102
{ACAD_XDICTIONARY
360
10000039
102
}
330
1F
100
AcDbEntity
  8
VISIBLE
100
AcDbLine
 10
-8.836520863725145
 20
-7.362629719606535
 30
0.0
 11
-5.703906961313383
 21
-7.362629719606535
 31
0.0
  0
LINE
  5
F42AF
102
{ACAD_XDICTIONARY
360
1000003B
102
}
330
1F
100
AcDbEntity
  8
VISIBLE
100
AcDbLine
 10
-2.539387650159441
 20
-2.404112861169306
 30
0.0
 11
-2.451739662478874
 21
-1.959921753388697
 31
0.0
  0
LINE
  5
F42B0
102
{ACAD_XDICTIONARY
360
1000003D
102
}
330
1F
100
AcDbEntity
  8
VISIBLE
100
AcDbLine
 10
1.323143721845879
 20
4.707746472248566
 30
0.0
 11
3.254409407848543
 21
4.326668264941749
 31
0.0
  0
LINE
  5
F42B1
102
{ACAD_XDICTIONARY
360
1000003F
102
}
330
1F
100
AcDbEntity
  8
VISIBLE
100
AcDbLine
 10
-4.471439916048559
 20
5.84922614787316
 30
0.0
 11
-2.540174230045892
 21
5.468147940566343
 31
0.0
  0
LINE
  5
F42B2
102
{ACAD_XDICTIONARY
360
10000041
102
}
330
1F
100
AcDbEntity
  8
VISIBLE
100
AcDbLine
 10
1.410791709526447
 20
5.151937580029165
 30
0.0
 11
1.32314372184588
 21
4.707746472248559
 31
0.0
  0
LINE
  5
F42B3
102
{ACAD_XDICTIONARY
360
10000043
102
}
330
1F
100
AcDbEntity
  8
VISIBLE
100
AcDbLine
 10
-2.539749960136425
 20
-2.405951314819752
 30
0.0
 11
-2.451679094951783
 21
-1.961843858587089
 31
0.0
  0
LINE
  5
F42B4
102
{ACAD_XDICTIONARY
360
10000045
102
}
330
1F
100
AcDbEntity
  8
VISIBLE
100
AcDbLine
 10
1.409700602379321
 20
-2.598597584207511
 30
0.0
 11
1.32162973719468
 21
-3.042705040440172
 31
0.0
  0
LINE
  5
F42B5
102
{ACAD_XDICTIONARY
360
10000047
102
}
330
1F
100
AcDbEntity
  8
VISIBLE
100
AcDbLine
 10
1.32162973719468
 20
-3.042705040440172
 30
0.0
 11
3.252531720814966
 21
-3.425621845590787
 31
0.0
  0
LINE
  5
F42B6
102
{ACAD_XDICTIONARY
360
10000049
102
}
330
1F
100
AcDbEntity
  8
VISIBLE
100
AcDbLine
 10
-2.539387650159441
 20
13.34391863489369
 30
0.0
 11
-2.451739662478875
 21
13.78810974267429
 31
0.0
  0
LINE
  5
F42B7
102
{ACAD_XDICTIONARY
360
1000004B
102
}
330
1F
100
AcDbEntity
  8
VISIBLE
100
AcDbLine
 10
-4.383005348481544
 20
14.16918794998111
 30
0.0
 11
-2.451739662478881
 21
13.78810974267429
 31
0.0
  0
LINE
  5
F42B8
102
{ACAD_XDICTIONARY
360
1000004D
102
}
330
1F
100
AcDbEntity
  8
VISIBLE
100
AcDbLine
 10
-6.351509285489406
 20
20.1964253985037
 30
0.0
 11
-6.351509285489404
 21
-3.425621845590787
 31
0.0
  0
LINE
  5
F42B9
102
{ACAD_XDICTIONARY
360
1000004F
102
}
330
1F
100
AcDbEntity
  8
VISIBLE
100
AcDbLine
 10
-4.383005348481531
 20
19.94502704913222
 30
0.0
 11
-4.383005348481531
 21
19.49227114362041
 31
0.0
  0
LINE
  5
F42BA
102
{ACAD_XDICTIONARY
360
10000051
102
}
330
1F
100
AcDbEntity
  8
VISIBLE
100
AcDbLine
 10
3.342057395529108
 20
12.64487512075385
 30
0.0
 11
3.254409407848541
 21
12.20068401297324
 31
0.0
  0
LINE
  5
F42BB
102
{ACAD_XDICTIONARY
360
10000053
102
}
330
1F
100
AcDbEntity
  8
VISIBLE
100
AcDbLine
 10
-4.382581078572066
 20
-1.578927053436473
 30
0.0
 11
-4.470651943756708
 21
-2.023034509669138
 31
0.0
  0
LINE
  5
F42BC
102
{ACAD_XDICTIONARY
360
10000055
102
}
330
1F
100
AcDbEntity
  8
VISIBLE
100
AcDbLine
 10
-10.23061193287473
 20
-5.318327079692471
 30
0.0
 11
-10.23061193287473
 21
-6.59411267660267
 31
0.0
  0
LINE
  5
F42BD
102
{ACAD_XDICTIONARY
360
10000057
102
}
330
1F
100
AcDbEntity
  8
VISIBLE
100
AcDbLine
 10
1.410791709526445
 20
5.15193758002917
 30
0.0
 11
3.34205739552911
 21
4.770859372722351
 31
0.0
  0
LINE
  5
F42BE
102
{ACAD_XDICTIONARY
360
10000059
102
}
330
1F
100
AcDbEntity
  8
VISIBLE
100
AcDbLine
 10
-4.383005348481535
 20
14.16918794998111
 30
0.0
 11
-4.470653336162103
 21
13.7249968422005
 31
0.0
  0
LINE
  5
F42BF
102
{ACAD_XDICTIONARY
360
1000005B
102
}
330
1F
100
AcDbEntity
  8
VISIBLE
100
AcDbLine
 10
3.340602585999606
 20
-2.981514389358127
 30
0.0
 11
3.252531720814966
 21
-3.425621845590787
 31
0.0
  0
LINE
  5
F42C0
102
{ACAD_XDICTIONARY
360
1000005D
102
}
330
1F
100
AcDbEntity
  8
VISIBLE
100
AcDbLine
 10
-4.470651943756708
 20
-2.023034509669138
 30
0.0
 11
-2.539749960136425
 21
-2.405951314819753
 31
0.0
  0
LINE
  5
F42C1
102
{ACAD_XDICTIONARY
360
1000005F
102
}
330
1F
100
AcDbEntity
  8
VISIBLE
100
AcDbLine
 10
-4.383005348481537
 20
6.295172201949621
 30
0.0
 11
-2.452103364861248
 21
5.912255396799004
 31
0.0
  0
LINE
  5
F42C2
102
{ACAD_XDICTIONARY
360
10000061
102
}
330
1F
100
AcDbEntity
  8
VISIBLE
100
AcDbLine
 10
-4.383005348481531
 20
19.49227114362041
 30
0.0
 11
-2.414501411473657
 21
19.49227114362041
 31
0.0
  0
LINE
  5
F42C3
102
{ACAD_XDICTIONARY
360
10000063
102
}
330
1F
100
AcDbEntity
  8
VISIBLE
100
AcDbLine
 10
-4.383791928367986
 20
6.293417255653773
 30
0.0
 11
-4.471439916048555
 21
5.849226147873159
 31
0.0
  0
LINE
  5
F42C4
102
{ACAD_XDICTIONARY
360
10000065
102
}
330
1F
100
AcDbEntity
  8
VISIBLE
100
AcDbLine
 10
1.410791709526445
 20
13.02595332806066
 30
0.0
 11
3.342057395529108
 21
12.64487512075384
 31
0.0
  0
LINE
  5
F42C5
102
{ACAD_XDICTIONARY
360
10000067
102
}
330
1F
100
AcDbEntity
  8
VISIBLE
100
AcDbLine
 10
3.342057395529109
 20
4.770859372722353
 30
0.0
 11
3.254409407848542
 21
4.326668264941747
 31
0.0
  0
LINE
  5
F42C6
102
{ACAD_XDICTIONARY
360
10000069
102
}
330
1F
100
AcDbEntity
  8
VISIBLE
100
AcDbLine
 10
-4.383005348481544
 20
-1.578843546081877
 30
0.0
 11
-2.451739662478883
 21
-1.959921753388694
 31
0.0
  0
LINE
  5
F42C7
102
{ACAD_XDICTIONARY
360
1000006B
102
}
330
1F
100
AcDbEntity
  8
VISIBLE
100
AcDbLine
 10
-4.470653336162112
 20
13.72499684220051
 30
0.0
 11
-2.539387650159447
 21
13.34391863489369
 31
0.0
  0
POLYLINE
  5
F42C8
102
{ACAD_XDICTIONARY
360
10000075
102
}
330
1F
100
AcDbEntity
  8
VISIBLE
100
AcDb3dPolyline
 66
     1
 10
0.0
 20
0.0
 30
0.0
 70
     8
  0
VERTEX
  5
1000006D
330
F42C8
100
AcDbEntity
  8
VISIBLE
100
AcDbVertex
100
AcDb3dPolylineVertex
 10
7.461720974895896
 20
23.03976712264414
 30
0.0
 70
    32
  0
VERTEX
  5
1000006E
330
F42C8
100
AcDbEntity
  8
VISIBLE
100
AcDbVertex
100
AcDb3dPolylineVertex
 10
7.426924040492714
 20
23.40828074586427
 30
0.0
 70
    32
  0
VERTEX
  5
1000006F
330
F42C8
100
AcDbEntity
  8
VISIBLE
100
AcDbVertex
100
AcDb3dPolylineVertex
 10
7.31405222861433
 20
23.65026032680497
 30
0.0
 70
    32
  0
VERTEX
  5
10000070
330
F42C8
100
AcDbEntity
  8
VISIBLE
100
AcDbVertex
100
AcDb3dPolylineVertex
 10
7.162142093558571
 20
23.81048336814906
 30
0.0
 70
    32
  0
VERTEX
  5
10000071
330
F42C8
100
AcDbEntity
  8
VISIBLE
100
AcDbVertex
100
AcDb3dPolylineVertex
 10
7.006393155097252
 20
23.93187449487642
 30
0.0
 70
    32
  0
VERTEX
  5
10000072
330
F42C8
100
AcDbEntity
  8
VISIBLE
100
AcDbVertex
100
AcDb3dPolylineVertex
 10
6.814585607558093
 20
24.03380346796801
 30
0.0
 70
    32
  0
VERTEX
  5
10000073
330
F42C8
100
AcDbEntity
  8
VISIBLE
100
AcDbVertex
100
AcDb3dPolylineVertex
 10
6.519184821325987
 20
24.10338931066985
 30
0.0
 70
    32
  0
VERTEX
  5
10000074
330
F42C8
100
AcDbEntity
  8
VISIBLE
100
AcDbVertex
100
AcDb3dPolylineVertex
 10
6.043551064382386
 20
24.13343327251945
 30
0.0
 70
    32
  0
SEQEND
  5
10000077
330
F42C8
100
AcDbEntity
  8
VISIBLE
  0
POLYLINE
  5
F42C9
102
{ACAD_XDICTIONARY
360
10000083
102
}
330
1F
100
AcDbEntity
  8
VISIBLE
100
AcDb3dPolyline
 66
     1
 10
0.0
 20
0.0
 30
0.0
 70
     8
  0
VERTEX
  5
10000078
330
F42C9
100
AcDbEntity
  8
VISIBLE
100
AcDbVertex
100
AcDb3dPolylineVertex
 10
-6.351509285489404
 20
-3.425621845590787
 30
0.0
 70
    32
  0
VERTEX
  5
10000079
330
F42C9
100
AcDbEntity
  8
VISIBLE
100
AcDbVertex
100
AcDb3dPolylineVertex
 10
-6.725427488399462
 20
-3.968119879320434
 30
0.0
 70
    32
  0
VERTEX
  5
1000007A
330
F42C9
100
AcDbEntity
  8
VISIBLE
100
AcDbVertex
100
AcDb3dPolylineVertex
 10
-7.160513388944064
 20
-4.314291342872757
 30
0.0
 70
    32
  0
VERTEX
  5
1000007B
330
F42C9
100
AcDbEntity
  8
VISIBLE
100
AcDbVertex
100
AcDb3dPolylineVertex
 10
-7.634748254068264
 20
-4.509194442792847
 30
0.0
 70
    32
  0
VERTEX
  5
1000007C
330
F42C9
100
AcDbEntity
  8
VISIBLE
100
AcDbVertex
100
AcDb3dPolylineVertex
 10
-8.126113350717127
 20
-4.597887385625794
 30
0.0
 70
    32
  0
VERTEX
  5
1000007D
330
F42C9
100
AcDbEntity
  8
VISIBLE
100
AcDbVertex
100
AcDb3dPolylineVertex
 10
-8.76985677025407
 20
-4.628807224505935
 30
0.0
 70
    32
  0
VERTEX
  5
1000007E
330
F42C9
100
AcDbEntity
  8
VISIBLE
100
AcDbVertex
100
AcDb3dPolylineVertex
 10
-9.352716967977313
 20
-4.657817122381168
 30
0.0
 70
    32
  0
VERTEX
  5
1000007F
330
F42C9
100
AcDbEntity
  8
VISIBLE
100
AcDbVertex
100
AcDb3dPolylineVertex
 10
-9.823069001559476
 20
-4.777743312648237
 30
0.0
 70
    32
  0
VERTEX
  5
10000080
330
F42C9
100
AcDbEntity
  8
VISIBLE
100
AcDbVertex
100
AcDb3dPolylineVertex
 10
-10.13182637562212
 20
-5.018898275158777
 30
0.0
 70
    32
  0
VERTEX
  5
10000081
330
F42C9
100
AcDbEntity
  8
VISIBLE
100
AcDbVertex
100
AcDb3dPolylineVertex
 10
-10.21048920164044
 20
-5.188950275205863
 30
0.0
 70
    32
  0
VERTEX
  5
10000082
330
F42C9
100
AcDbEntity
  8
VISIBLE
100
AcDbVertex
100
AcDb3dPolylineVertex
 10
-10.23061193287473
 20
-5.394125782598661
 30
0.0
 70
    32
  0
SEQEND
  5
10000085
330
F42C9
100
AcDbEntity
  8
VISIBLE
  0
LINE
  5
F42CA
102
{ACAD_XDICTIONARY
360
10000086
102
}
330
1F
100
AcDbEntity
  8
VISIBLE
100
AcDbLine
 10
1.323143721845877
 20
12.58176222028006
 30
0.0
 11
3.254409407848541
 21
12.20068401297324
 31
0.0
  0
POLYLINE
  5
F42CB
102
{ACAD_XDICTIONARY
360
10000095
102
}
330
1F
100
AcDbEntity
  8
VISIBLE
100
AcDb3dPolyline
 66
     1
 10
0.0
 20
0.0
 30
0.0
 70
     8
  0
VERTEX
  5
1000008B
330
F42CB
100
AcDbEntity
  8
VISIBLE
100
AcDbVertex
100
AcDb3dPolylineVertex
 10
-5.703906961313384
 20
-7.362629719606535
 30
0.0
 70
    32
  0
VERTEX
  5
1000008C
330
F42CB
100
AcDbEntity
  8
VISIBLE
100
AcDbVertex
100
AcDb3dPolylineVertex
 10
-5.01915081928656
 20
-7.294922328085625
 30
0.0
 70
    32
  0
VERTEX
  5
1000008D
330
F42CB
100
AcDbEntity
  8
VISIBLE
100
AcDbVertex
100
AcDb3dPolylineVertex
 10
-4.513316242618368
 20
-7.112659126927923
 30
0.0
 70
    32
  0
VERTEX
  5
1000008E
330
F42CB
100
AcDbEntity
  8
VISIBLE
100
AcDbVertex
100
AcDb3dPolylineVertex
 10
-4.140548916754413
 20
-6.854627619723022
 30
0.0
 70
    32
  0
VERTEX
  5
1000008F
330
F42CB
100
AcDbEntity
  8
VISIBLE
100
AcDbVertex
100
AcDb3dPolylineVertex
 10
-3.730592710128664
 20
-6.410362449179409
 30
0.0
 70
    32
  0
VERTEX
  5
10000090
330
F42CB
100
AcDbEntity
  8
VISIBLE
100
AcDbVertex
100
AcDb3dPolylineVertex
 10
-3.362151115386994
 20
-6.013727766471907
 30
0.0
 70
    32
  0
VERTEX
  5
10000091
330
F42CB
100
AcDbEntity
  8
VISIBLE
100
AcDbVertex
100
AcDb3dPolylineVertex
 10
-2.842224406759831
 20
-5.732108073221888
 30
0.0
 70
    32
  0
VERTEX
  5
10000092
330
F42CB
100
AcDbEntity
  8
VISIBLE
100
AcDbVertex
100
AcDb3dPolylineVertex
 10
-2.128209514475603
 20
-5.592139573438083
 30
0.0
 70
    32
  0
VERTEX
  5
10000093
330
F42CB
100
AcDbEntity
  8
VISIBLE
100
AcDbVertex
100
AcDb3dPolylineVertex
 10
-1.385525120802767
 20
-5.546619913277946
 30
0.0
 70
    32
  0
VERTEX
  5
10000094
330
F42CB
100
AcDbEntity
  8
VISIBLE
100
AcDbVertex
100
AcDb3dPolylineVertex
 10
-0.4459974744657814
 20
-5.529457776565252
 30
0.0
 70
    32
  0
SEQEND
  5
10000097
330
F42CB
100
AcDbEntity
  8
VISIBLE
  0
LINE
  5
F42CC
102
{ACAD_XDICTIONARY
360
10000098
102
}
330
1F
100
AcDbEntity
  8
VISIBLE
100
AcDbLine
 10
5.459514336557838
 20
20.1964253985037
 30
0.0
 11
5.459514336557838
 21
-3.425621845590787
 31
0.0
  0
LINE
  5
F42CD
102
{ACAD_XDICTIONARY
360
1000009D
102
}
330
1F
100
AcDbEntity
  8
VISIBLE
100
AcDbLine
 10
1.522506462542092
 20
19.94502704913222
 30
0.0
 11
3.491010399549966
 21
19.94502704913222
 31
0.0
  0
POLYLINE
  5
F42CE
102
{ACAD_XDICTIONARY
360
100000AD
102
}
330
1F
100
AcDbEntity
  8
VISIBLE
100
AcDb3dPolyline
 66
     1
 10
0.0
 20
0.0
 30
0.0
 70
     8
  0
VERTEX
  5
100000A2
330
F42CE
100
AcDbEntity
  8
VISIBLE
100
AcDbVertex
100
AcDb3dPolylineVertex
 10
-6.351509285489406
 20
20.1964253985037
 30
0.0
 70
    32
  0
VERTEX
  5
100000A3
330
F42CE
100
AcDbEntity
  8
VISIBLE
100
AcDbVertex
100
AcDb3dPolylineVertex
 10
-6.426959561017434
 20
20.74686284500418
 30
0.0
 70
    32
  0
VERTEX
  5
100000A4
330
F42CE
100
AcDbEntity
  8
VISIBLE
100
AcDbVertex
100
AcDb3dPolylineVertex
 10
-6.579454475812638
 20
21.13070040296386
 30
0.0
 70
    32
  0
VERTEX
  5
100000A5
330
F42CE
100
AcDbEntity
  8
VISIBLE
100
AcDbVertex
100
AcDb3dPolylineVertex
 10
-6.788555868471003
 20
21.38145357689157
 30
0.0
 70
    32
  0
VERTEX
  5
100000A6
330
F42CE
100
AcDbEntity
  8
VISIBLE
100
AcDbVertex
100
AcDb3dPolylineVertex
 10
-7.163636625380684
 20
21.58136528383627
 30
0.0
 70
    32
  0
VERTEX
  5
100000A7
330
F42CE
100
AcDbEntity
  8
VISIBLE
100
AcDbVertex
100
AcDb3dPolylineVertex
 10
-7.551117299584877
 20
21.67036183957127
 30
0.0
 70
    32
  0
VERTEX
  5
100000A8
330
F42CE
100
AcDbEntity
  8
VISIBLE
100
AcDbVertex
100
AcDb3dPolylineVertex
 10
-7.885983254570246
 20
21.76046826755593
 30
0.0
 70
    32
  0
VERTEX
  5
100000A9
330
F42CE
100
AcDbEntity
  8
VISIBLE
100
AcDbVertex
100
AcDb3dPolylineVertex
 10
-8.138644789815011
 20
21.95397076552948
 30
0.0
 70
    32
  0
VERTEX
  5
100000AA
330
F42CE
100
AcDbEntity
  8
VISIBLE
100
AcDbVertex
100
AcDb3dPolylineVertex
 10
-8.255998398288323
 20
22.18839885752283
 30
0.0
 70
    32
  0
VERTEX
  5
100000AB
330
F42CE
100
AcDbEntity
  8
VISIBLE
100
AcDbVertex
100
AcDb3dPolylineVertex
 10
-8.328753953725942
 20
22.54073922418267
 30
0.0
 70
    32
  0
VERTEX
  5
100000AC
330
F42CE
100
AcDbEntity
  8
VISIBLE
100
AcDbVertex
100
AcDb3dPolylineVertex
 10
-8.353715923827458
 20
23.03976712264414
 30
0.0
 70
    32
  0
SEQEND
  5
100000AF
330
F42CE
100
AcDbEntity
  8
VISIBLE
  0
LINE
  5
F42CF
102
{ACAD_XDICTIONARY
360
100000B0
102
}
330
1F
100
AcDbEntity
  8
VISIBLE
100
AcDbLine
 10
1.40970060237932
 20
-2.598597584207511
 30
0.0
 11
3.340602585999606
 21
-2.981514389358127
 31
0.0
  0
LINE
  5
F42D0
102
{ACAD_XDICTIONARY
360
100000B2
102
}
330
1F
100
AcDbEntity
  8
VISIBLE
100
AcDbLine
 10
1.410791709526447
 20
13.02595332806066
 30
0.0
 11
1.32314372184588
 21
12.58176222028005
 31
0.0
  0
POLYLINE
  5
F42D1
102
{ACAD_XDICTIONARY
360
100000BC
102
}
330
1F
100
AcDbEntity
  8
VISIBLE
100
AcDb3dPolyline
 66
     1
 10
0.0
 20
0.0
 30
0.0
 70
     8
  0
VERTEX
  5
100000B4
330
F42D1
100
AcDbEntity
  8
VISIBLE
100
AcDbVertex
100
AcDb3dPolylineVertex
 10
-8.353715923827458
 20
23.03976712264414
 30
0.0
 70
    32
  0
VERTEX
  5
100000B5
330
F42D1
100
AcDbEntity
  8
VISIBLE
100
AcDbVertex
100
AcDb3dPolylineVertex
 10
-8.318918989424278
 20
23.40828074586429
 30
0.0
 70
    32
  0
VERTEX
  5
100000B6
330
F42D1
100
AcDbEntity
  8
VISIBLE
100
AcDbVertex
100
AcDb3dPolylineVertex
 10
-8.206047177545893
 20
23.65026032680497
 30
0.0
 70
    32
  0
VERTEX
  5
100000B7
330
F42D1
100
AcDbEntity
  8
VISIBLE
100
AcDbVertex
100
AcDb3dPolylineVertex
 10
-8.054137042490135
 20
23.81048336814907
 30
0.0
 70
    32
  0
VERTEX
  5
100000B8
330
F42D1
100
AcDbEntity
  8
VISIBLE
100
AcDbVertex
100
AcDb3dPolylineVertex
 10
-7.898388104028819
 20
23.93187449487642
 30
0.0
 70
    32
  0
VERTEX
  5
100000B9
330
F42D1
100
AcDbEntity
  8
VISIBLE
100
AcDbVertex
100
AcDb3dPolylineVertex
 10
-7.706580556489662
 20
24.03380346796801
 30
0.0
 70
    32
  0
VERTEX
  5
100000BA
330
F42D1
100
AcDbEntity
  8
VISIBLE
100
AcDbVertex
100
AcDb3dPolylineVertex
 10
-7.411179770257556
 20
24.10338931066985
 30
0.0
 70
    32
  0
VERTEX
  5
100000BB
330
F42D1
100
AcDbEntity
  8
VISIBLE
100
AcDbVertex
100
AcDb3dPolylineVertex
 10
-6.935546013313956
 20
24.13343327251945
 30
0.0
 70
    32
  0
SEQEND
  5
100000BE
330
F42D1
100
AcDbEntity
  8
VISIBLE
  0
POLYLINE
  5
F42D2
102
{ACAD_XDICTIONARY
360
100000CA
102
}
330
1F
100
AcDbEntity
  8
VISIBLE
100
AcDb3dPolyline
 66
     1
 10
0.0
 20
0.0
 30
0.0
 70
     8
  0
VERTEX
  5
100000BF
330
F42D2
100
AcDbEntity
  8
VISIBLE
100
AcDbVertex
100
AcDb3dPolylineVertex
 10
-10.23061193287473
 20
-5.394125782598661
 30
0.0
 70
    32
  0
VERTEX
  5
100000C0
330
F42D2
100
AcDbEntity
  8
VISIBLE
100
AcDbVertex
100
AcDb3dPolylineVertex
 10
-10.20708629049551
 20
-5.946782579487355
 30
0.0
 70
    32
  0
VERTEX
  5
100000C1
330
F42D2
100
AcDbEntity
  8
VISIBLE
100
AcDbVertex
100
AcDb3dPolylineVertex
 10
-10.14094756745157
 20
-6.353906901306447
 30
0.0
 70
    32
  0
VERTEX
  5
100000C2
330
F42D2
100
AcDbEntity
  8
VISIBLE
100
AcDbVertex
100
AcDb3dPolylineVertex
 10
-10.03885306988352
 20
-6.643289935987843
 30
0.0
 70
    32
  0
VERTEX
  5
100000C3
330
F42D2
100
AcDbEntity
  8
VISIBLE
100
AcDbVertex
100
AcDb3dPolylineVertex
 10
-9.832857103481317
 20
-6.917392798227804
 30
0.0
 70
    32
  0
VERTEX
  5
100000C4
330
F42D2
100
AcDbEntity
  8
VISIBLE
100
AcDbVertex
100
AcDb3dPolylineVertex
 10
-9.583251072928798
 20
-7.082739982960009
 30
0.0
 70
    32
  0
VERTEX
  5
100000C5
330
F42D2
100
AcDbEntity
  8
VISIBLE
100
AcDbVertex
100
AcDb3dPolylineVertex
 10
-9.285805347285704
 20
-7.205357673047085
 30
0.0
 70
    32
  0
VERTEX
  5
100000C6
330
F42D2
100
AcDbEntity
  8
VISIBLE
100
AcDbVertex
100
AcDb3dPolylineVertex
 10
-8.995358318125092
 20
-7.274234195263937
 30
0.0
 70
    32
  0
VERTEX
  5
100000C7
330
F42D2
100
AcDbEntity
  8
VISIBLE
100
AcDbVertex
100
AcDb3dPolylineVertex
 10
-8.615482957316413
 20
-7.323373931830755
 30
0.0
 70
    32
  0
VERTEX
  5
100000C8
330
F42D2
100
AcDbEntity
  8
VISIBLE
100
AcDbVertex
100
AcDb3dPolylineVertex
 10
-8.11765930474965
 20
-7.352823550645601
 30
0.0
 70
    32
  0
VERTEX
  5
100000C9
330
F42D2
100
AcDbEntity
  8
VISIBLE
100
AcDbVertex
100
AcDb3dPolylineVertex
 10
-7.473367400314795
 20
-7.362629719606537
 30
0.0
 70
    32
  0
SEQEND
  5
100000CC
330
F42D2
100
AcDbEntity
  8
VISIBLE
  0
POLYLINE
  5
F42D3
102
{ACAD_XDICTIONARY
360
100000D7
102
}
330
1F
100
AcDbEntity
  8
VISIBLE
100
AcDb3dPolyline
 66
     1
 10
0.0
 20
0.0
 30
0.0
 70
     8
  0
VERTEX
  5
100000CD
330
F42D3
100
AcDbEntity
  8
VISIBLE
100
AcDbVertex
100
AcDb3dPolylineVertex
 10
4.811912012381821
 20
-7.362629719606535
 30
0.0
 70
    32
  0
VERTEX
  5
100000CE
330
F42D3
100
AcDbEntity
  8
VISIBLE
100
AcDbVertex
100
AcDb3dPolylineVertex
 10
4.127155870354997
 20
-7.294922328085625
 30
0.0
 70
    32
  0
VERTEX
  5
100000CF
330
F42D3
100
AcDbEntity
  8
VISIBLE
100
AcDbVertex
100
AcDb3dPolylineVertex
 10
3.621321293686808
 20
-7.112659126927926
 30
0.0
 70
    32
  0
VERTEX
  5
100000D0
330
F42D3
100
AcDbEntity
  8
VISIBLE
100
AcDbVertex
100
AcDb3dPolylineVertex
 10
3.248553967822851
 20
-6.854627619723023
 30
0.0
 70
    32
  0
VERTEX
  5
100000D1
330
F42D3
100
AcDbEntity
  8
VISIBLE
100
AcDbVertex
100
AcDb3dPolylineVertex
 10
2.838597761197103
 20
-6.410362449179408
 30
0.0
 70
    32
  0
VERTEX
  5
100000D2
330
F42D3
100
AcDbEntity
  8
VISIBLE
100
AcDbVertex
100
AcDb3dPolylineVertex
 10
2.470156166455432
 20
-6.013727766471906
 30
0.0
 70
    32
  0
VERTEX
  5
100000D3
330
F42D3
100
AcDbEntity
  8
VISIBLE
100
AcDbVertex
100
AcDb3dPolylineVertex
 10
1.950229457828269
 20
-5.732108073221888
 30
0.0
 70
    32
  0
VERTEX
  5
100000D4
330
F42D3
100
AcDbEntity
  8
VISIBLE
100
AcDbVertex
100
AcDb3dPolylineVertex
 10
1.236214565544041
 20
-5.592139573438082
 30
0.0
 70
    32
  0
VERTEX
  5
100000D5
330
F42D3
100
AcDbEntity
  8
VISIBLE
100
AcDbVertex
100
AcDb3dPolylineVertex
 10
0.4935301718712044
 20
-5.546619913277946
 30
0.0
 70
    32
  0
VERTEX
  5
100000D6
330
F42D3
100
AcDbEntity
  8
VISIBLE
100
AcDbVertex
100
AcDb3dPolylineVertex
 10
-0.4459974744657809
 20
-5.529457776565252
 30
0.0
 70
    32
  0
SEQEND
  5
100000D9
330
F42D3
100
AcDbEntity
  8
VISIBLE
  0
POLYLINE
  5
F42D4
102
{ACAD_XDICTIONARY
360
100000E5
102
}
330
1F
100
AcDbEntity
  8
VISIBLE
100
AcDb3dPolyline
 66
     1
 10
0.0
 20
0.0
 30
0.0
 70
     8
  0
VERTEX
  5
100000DA
330
F42D4
100
AcDbEntity
  8
VISIBLE
100
AcDbVertex
100
AcDb3dPolylineVertex
 10
5.45951433655784
 20
20.1964253985037
 30
0.0
 70
    32
  0
VERTEX
  5
100000DB
330
F42D4
100
AcDbEntity
  8
VISIBLE
100
AcDbVertex
100
AcDb3dPolylineVertex
 10
5.534964612085868
 20
20.74686284500418
 30
0.0
 70
    32
  0
VERTEX
  5
100000DC
330
F42D4
100
AcDbEntity
  8
VISIBLE
100
AcDbVertex
100
AcDb3dPolylineVertex
 10
5.687459526881073
 20
21.13070040296386
 30
0.0
 70
    32
  0
VERTEX
  5
100000DD
330
F42D4
100
AcDbEntity
  8
VISIBLE
100
AcDbVertex
100
AcDb3dPolylineVertex
 10
5.896560919539435
 20
21.38145357689157
 30
0.0
 70
    32
  0
VERTEX
  5
100000DE
330
F42D4
100
AcDbEntity
  8
VISIBLE
100
AcDbVertex
100
AcDb3dPolylineVertex
 10
6.271641676449116
 20
21.58136528383627
 30
0.0
 70
    32
  0
VERTEX
  5
100000DF
330
F42D4
100
AcDbEntity
  8
VISIBLE
100
AcDbVertex
100
AcDb3dPolylineVertex
 10
6.659122350653309
 20
21.67036183957127
 30
0.0
 70
    32
  0
VERTEX
  5
100000E0
330
F42D4
100
AcDbEntity
  8
VISIBLE
100
AcDbVertex
100
AcDb3dPolylineVertex
 10
6.99398830563868
 20
21.76046826755593
 30
0.0
 70
    32
  0
VERTEX
  5
100000E1
330
F42D4
100
AcDbEntity
  8
VISIBLE
100
AcDbVertex
100
AcDb3dPolylineVertex
 10
7.246649840883445
 20
21.95397076552947
 30
0.0
 70
    32
  0
VERTEX
  5
100000E2
330
F42D4
100
AcDbEntity
  8
VISIBLE
100
AcDbVertex
100
AcDb3dPolylineVertex
 10
7.364003449356757
 20
22.18839885752283
 30
0.0
 70
    32
  0
VERTEX
  5
100000E3
330
F42D4
100
AcDbEntity
  8
VISIBLE
100
AcDbVertex
100
AcDb3dPolylineVertex
 10
7.436759004794377
 20
22.54073922418266
 30
0.0
 70
    32
  0
VERTEX
  5
100000E4
330
F42D4
100
AcDbEntity
  8
VISIBLE
100
AcDbVertex
100
AcDb3dPolylineVertex
 10
7.461720974895896
 20
23.03976712264414
 30
0.0
 70
    32
  0
SEQEND
  5
100000E7
330
F42D4
100
AcDbEntity
  8
VISIBLE
  0
LINE
  5
F42D5
102
{ACAD_XDICTIONARY
360
100000E8
102
}
330
1F
100
AcDbEntity
  8
VISIBLE
100
AcDbLine
 10
7.944525914793583
 20
-7.362629719606532
 30
0.0
 11
4.811912012381821
 21
-7.362629719606533
 31
0.0
  0
POLYLINE
  5
F42D6
102
{ACAD_XDICTIONARY
360
100000F8
102
}
330
1F
100
AcDbEntity
  8
VISIBLE
100
AcDb3dPolyline
 66
     1
 10
0.0
 20
0.0
 30
0.0
 70
     8
  0
VERTEX
  5
100000ED
330
F42D6
100
AcDbEntity
  8
VISIBLE
100
AcDbVertex
100
AcDb3dPolylineVertex
 10
9.33861698394317
 20
-5.394125782598658
 30
0.0
 70
    32
  0
VERTEX
  5
100000EE
330
F42D6
100
AcDbEntity
  8
VISIBLE
100
AcDbVertex
100
AcDb3dPolylineVertex
 10
9.315091341563948
 20
-5.946782579487354
 30
0.0
 70
    32
  0
VERTEX
  5
100000EF
330
F42D6
100
AcDbEntity
  8
VISIBLE
100
AcDbVertex
100
AcDb3dPolylineVertex
 10
9.24895261852001
 20
-6.353906901306445
 30
0.0
 70
    32
  0
VERTEX
  5
100000F0
330
F42D6
100
AcDbEntity
  8
VISIBLE
100
AcDbVertex
100
AcDb3dPolylineVertex
 10
9.146858120951961
 20
-6.643289935987841
 30
0.0
 70
    32
  0
VERTEX
  5
100000F1
330
F42D6
100
AcDbEntity
  8
VISIBLE
100
AcDbVertex
100
AcDb3dPolylineVertex
 10
8.940862154549754
 20
-6.917392798227801
 30
0.0
 70
    32
  0
VERTEX
  5
100000F2
330
F42D6
100
AcDbEntity
  8
VISIBLE
100
AcDbVertex
100
AcDb3dPolylineVertex
 10
8.691256123997235
 20
-7.082739982960007
 30
0.0
 70
    32
  0
VERTEX
  5
100000F3
330
F42D6
100
AcDbEntity
  8
VISIBLE
100
AcDbVertex
100
AcDb3dPolylineVertex
 10
8.39381039835414
 20
-7.205357673047084
 30
0.0
 70
    32
  0
VERTEX
  5
100000F4
330
F42D6
100
AcDbEntity
  8
VISIBLE
100
AcDbVertex
100
AcDb3dPolylineVertex
 10
8.103363369193533
 20
-7.274234195263936
 30
0.0
 70
    32
  0
VERTEX
  5
100000F5
330
F42D6
100
AcDbEntity
  8
VISIBLE
100
AcDbVertex
100
AcDb3dPolylineVertex
 10
7.723488008384852
 20
-7.323373931830754
 30
0.0
 70
    32
  0
VERTEX
  5
100000F6
330
F42D6
100
AcDbEntity
  8
VISIBLE
100
AcDbVertex
100
AcDb3dPolylineVertex
 10
7.225664355818087
 20
-7.352823550645597
 30
0.0
 70
    32
  0
VERTEX
  5
100000F7
330
F42D6
100
AcDbEntity
  8
VISIBLE
100
AcDbVertex
100
AcDb3dPolylineVertex
 10
6.581372451383233
 20
-7.362629719606535
 30
0.0
 70
    32
  0
SEQEND
  5
100000FA
330
F42D6
100
AcDbEntity
  8
VISIBLE
  0
POLYLINE
  5
F42D7
102
{ACAD_XDICTIONARY
360
10000106
102
}
330
1F
100
AcDbEntity
  8
VISIBLE
100
AcDb3dPolyline
 66
     1
 10
0.0
 20
0.0
 30
0.0
 70
     8
  0
VERTEX
  5
100000FB
330
F42D7
100
AcDbEntity
  8
VISIBLE
100
AcDbVertex
100
AcDb3dPolylineVertex
 10
5.459514336557841
 20
-3.425621845590786
 30
0.0
 70
    32
  0
VERTEX
  5
100000FC
330
F42D7
100
AcDbEntity
  8
VISIBLE
100
AcDbVertex
100
AcDb3dPolylineVertex
 10
5.833432539467898
 20
-3.968119879320433
 30
0.0
 70
    32
  0
VERTEX
  5
100000FD
330
F42D7
100
AcDbEntity
  8
VISIBLE
100
AcDbVertex
100
AcDb3dPolylineVertex
 10
6.2685184400125
 20
-4.314291342872756
 30
0.0
 70
    32
  0
VERTEX
  5
100000FE
330
F42D7
100
AcDbEntity
  8
VISIBLE
100
AcDbVertex
100
AcDb3dPolylineVertex
 10
6.742753305136702
 20
-4.509194442792845
 30
0.0
 70
    32
  0
VERTEX
  5
100000FF
330
F42D7
100
AcDbEntity
  8
VISIBLE
100
AcDbVertex
100
AcDb3dPolylineVertex
 10
7.234118401785562
 20
-4.597887385625793
 30
0.0
 70
    32
  0
VERTEX
  5
10000100
330
F42D7
100
AcDbEntity
  8
VISIBLE
100
AcDbVertex
100
AcDb3dPolylineVertex
 10
7.877861821322504
 20
-4.628807224505933
 30
0.0
 70
    32
  0
VERTEX
  5
10000101
330
F42D7
100
AcDbEntity
  8
VISIBLE
100
AcDbVertex
100
AcDb3dPolylineVertex
 10
8.46072201904575
 20
-4.657817122381165
 30
0.0
 70
    32
  0
VERTEX
  5
10000102
330
F42D7
100
AcDbEntity
  8
VISIBLE
100
AcDbVertex
100
AcDb3dPolylineVertex
 10
8.931074052627912
 20
-4.777743312648234
 30
0.0
 70
    32
  0
VERTEX
  5
10000103
330
F42D7
100
AcDbEntity
  8
VISIBLE
100
AcDbVertex
100
AcDb3dPolylineVertex
 10
9.239831426690563
 20
-5.018898275158775
 30
0.0
 70
    32
  0
VERTEX
  5
10000104
330
F42D7
100
AcDbEntity
  8
VISIBLE
100
AcDbVertex
100
AcDb3dPolylineVertex
 10
9.31849425270888
 20
-5.18895027520586
 30
0.0
 70
    32
  0
VERTEX
  5
10000105
330
F42D7
100
AcDbEntity
  8
VISIBLE
100
AcDbVertex
100
AcDb3dPolylineVertex
 10
9.33861698394317
 20
-5.394125782598658
 30
0.0
 70
    32
  0
SEQEND
  5
10000108
330
F42D7
100
AcDbEntity
  8
VISIBLE
  0
LINE
  5
F42D8
102
{ACAD_XDICTIONARY
360
10000109
102
}
330
1F
100
AcDbEntity
  8
VISIBLE
100
AcDbLine
 10
-6.935546013313955
 20
24.13343327251945
 30
0.0
 11
6.043551064382387
 21
24.13343327251945
 31
0.0
  0
LINE
  5
F42D9
102
{ACAD_XDICTIONARY
360
1000010B
102
}
330
1F
100
AcDbEntity
  8
VISIBLE
100
AcDbLine
 10
-4.383005348481531
 20
19.94502704913222
 30
0.0
 11
-2.414501411473657
 21
19.94502704913222
 31
0.0
  0
LINE
  5
F42DA
102
{ACAD_XDICTIONARY
360
1000010D
102
}
330
1F
100
AcDbEntity
  8
VISIBLE
100
AcDbLine
 10
3.491010399549966
 20
19.94502704913222
 30
0.0
 11
3.491010399549966
 21
19.49227114362041
 31
0.0
  0
LINE
  5
F42DB
102
{ACAD_XDICTIONARY
360
1000010F
102
}
330
1F
100
AcDbEntity
  8
VISIBLE
100
AcDbLine
 10
-2.414501411473657
 20
19.94502704913222
 30
0.0
 11
-2.414501411473657
 21
19.49227114362041
 31
0.0
  0
LINE
  5
F42DC
102
{ACAD_XDICTIONARY
360
10000111
102
}
330
1F
100
AcDbEntity
  8
VISIBLE
100
AcDbLine
 10
1.522506462542092
 20
19.94502704913222
 30
0.0
 11
1.522506462542092
 21
19.49227114362041
 31
0.0
  0
LINE
  5
F42DD
102
{ACAD_XDICTIONARY
360
10000113
102
}
330
1F
100
AcDbEntity
  8
VISIBLE
100
AcDbLine
 10
1.522506462542092
 20
19.49227114362041
 30
0.0
 11
3.491010399549966
 21
19.49227114362041
 31
0.0
  0
LINE
  5
F42DE
102
{ACAD_XDICTIONARY
360
10000115
102
}
330
1F
100
AcDbEntity
  8
VISIBLE
100
AcDbLine
 10
-2.540174230045888
 20
5.468147940566339
 30
0.0
 11
-2.452103364861247
 21
5.912255396799002
 31
0.0
  0
LINE
  5
F42DF
102
{ACAD_XDICTIONARY
360
10000117
102
}
330
1F
100
AcDbEntity
  8
VISIBLE
100
AcDbLine
 10
-4.382581078572069
 20
-1.578927053436473
 30
0.0
 11
-2.451679094951784
 21
-1.961843858587089
 31
0.0
  0
ENDSEC
  0
SECTION
  2
OBJECTS
  0
DICTIONARY
  5
C
330
0
100
AcDbDictionary
  3
ACAD_GROUP
350
D
  3
ACAD_LAYOUT
350
1A
  3
ACAD_MATERIAL
350
43
  3
ACAD_MLEADERSTYLE
350
6B
  3
ACAD_MLINESTYLE
350
17
  3
ACAD_PLOTSETTINGS
350
19
  3
ACAD_SCALELIST
350
47
  3
ACAD_VISUALSTYLE
350
2A
  3
ACDBHEADERROUNDTRIPXREC
350
1000011B
  3
ACDBVARIABLEDICTIONARY
350
1000013C
  3
DWGPROPS
350
10000143
  3
ONSHAPE_DATA
350
10000001
  0
DICTIONARY
  5
10000144
330
8
100
AcDbDictionary
280
     1
  3
ACAD_XREC_ROUNDTRIP
360
10000145
  0
DICTIONARY
  5
10000119
330
1F
100
AcDbDictionary
280
     1
  3
ACAD_SORTENTS
360
1000011A
  0
DICTIONARY
  5
10000035
330
F42AC
100
AcDbDictionary
280
     1
  3
BTDETID
360
10000036
  0
DICTIONARY
  5
10000037
330
F42AD
100
AcDbDictionary
280
     1
  3
BTDETID
360
10000038
  0
DICTIONARY
  5
10000039
330
F42AE
100
AcDbDictionary
280
     1
  3
BTDETID
360
1000003A
  0
DICTIONARY
  5
1000003B
330
F42AF
100
AcDbDictionary
280
     1
  3
BTDETID
360
1000003C
  0
DICTIONARY
  5
1000003D
330
F42B0
100
AcDbDictionary
280
     1
  3
BTDETID
360
1000003E
  0
DICTIONARY
  5
1000003F
330
F42B1
100
AcDbDictionary
280
     1
  3
BTDETID
360
10000040
  0
DICTIONARY
  5
10000041
330
F42B2
100
AcDbDictionary
280
     1
  3
BTDETID
360
10000042
  0
DICTIONARY
  5
10000043
330
F42B3
100
AcDbDictionary
280
     1
  3
BTDETID
360
10000044
  0
DICTIONARY
  5
10000045
330
F42B4
100
AcDbDictionary
280
     1
  3
BTDETID
360
10000046
  0
DICTIONARY
  5
10000047
330
F42B5
100
AcDbDictionary
280
     1
  3
BTDETID
360
10000048
  0
DICTIONARY
  5
10000049
330
F42B6
100
AcDbDictionary
280
     1
  3
BTDETID
360
1000004A
  0
DICTIONARY
  5
1000004B
330
F42B7
100
AcDbDictionary
280
     1
  3
BTDETID
360
1000004C
  0
DICTIONARY
  5
1000004D
330
F42B8
100
AcDbDictionary
280
     1
  3
BTDETID
360
1000004E
  0
DICTIONARY
  5
1000004F
330
F42B9
100
AcDbDictionary
280
     1
  3
BTDETID
360
10000050
  0
DICTIONARY
  5
10000051
330
F42BA
100
AcDbDictionary
280
     1
  3
BTDETID
360
10000052
  0
DICTIONARY
  5
10000053
330
F42BB
100
AcDbDictionary
280
     1
  3
BTDETID
360
10000054
  0
DICTIONARY
  5
10000055
330
F42BC
100
AcDbDictionary
280
     1
  3
BTDETID
360
10000056
  0
DICTIONARY
  5
10000057
330
F42BD
100
AcDbDictionary
280
     1
  3
BTDETID
360
10000058
  0
DICTIONARY
  5
10000059
330
F42BE
100
AcDbDictionary
280
     1
  3
BTDETID
360
1000005A
  0
DICTIONARY
  5
1000005B
330
F42BF
100
AcDbDictionary
280
     1
  3
BTDETID
360
1000005C
  0
DICTIONARY
  5
1000005D
330
F42C0
100
AcDbDictionary
280
     1
  3
BTDETID
360
1000005E
  0
DICTIONARY
  5
1000005F
330
F42C1
100
AcDbDictionary
280
     1
  3
BTDETID
360
10000060
  0
DICTIONARY
  5
10000061
330
F42C2
100
AcDbDictionary
280
     1
  3
BTDETID
360
10000062
  0
DICTIONARY
  5
10000063
330
F42C3
100
AcDbDictionary
280
     1
  3
BTDETID
360
10000064
  0
DICTIONARY
  5
10000065
330
F42C4
100
AcDbDictionary
280
     1
  3
BTDETID
360
10000066
  0
DICTIONARY
  5
10000067
330
F42C5
100
AcDbDictionary
280
     1
  3
BTDETID
360
10000068
  0
DICTIONARY
  5
10000069
330
F42C6
100
AcDbDictionary
280
     1
  3
BTDETID
360
1000006A
  0
DICTIONARY
  5
1000006B
330
F42C7
100
AcDbDictionary
280
     1
  3
BTDETID
360
1000006C
  0
DICTIONARY
  5
10000075
330
F42C8
100
AcDbDictionary
280
     1
  3
BTDETID
360
10000076
  0
DICTIONARY
  5
10000083
330
F42C9
100
AcDbDictionary
280
     1
  3
BTDETID
360
10000084
  0
DICTIONARY
  5
10000086
330
F42CA
100
AcDbDictionary
280
     1
  3
BTCYLORGN
360
10000089
  3
BTCYLRADIUS
360
1000008A
  3
BTDETID
360
10000087
  3
BTISCYL
360
10000088
  0
DICTIONARY
  5
10000095
330
F42CB
100
AcDbDictionary
280
     1
  3
BTDETID
360
10000096
  0
DICTIONARY
  5
10000098
330
F42CC
100
AcDbDictionary
280
     1
  3
BTCYLORGN
360
1000009B
  3
BTCYLRADIUS
360
1000009C
  3
BTDETID
360
10000099
  3
BTISCYL
360
1000009A
  0
DICTIONARY
  5
1000009D
330
F42CD
100
AcDbDictionary
280
     1
  3
BTCYLORGN
360
100000A0
  3
BTCYLRADIUS
360
100000A1
  3
BTDETID
360
1000009E
  3
BTISCYL
360
1000009F
  0
DICTIONARY
  5
100000AD
330
F42CE
100
AcDbDictionary
280
     1
  3
BTDETID
360
100000AE
  0
DICTIONARY
  5
100000B0
330
F42CF
100
AcDbDictionary
280
     1
  3
BTDETID
360
100000B1
  0
DICTIONARY
  5
100000B2
330
F42D0
100
AcDbDictionary
280
     1
  3
BTDETID
360
100000B3
  0
DICTIONARY
  5
100000BC
330
F42D1
100
AcDbDictionary
280
     1
  3
BTDETID
360
100000BD
  0
DICTIONARY
  5
100000CA
330
F42D2
100
AcDbDictionary
280
     1
  3
BTDETID
360
100000CB
  0
DICTIONARY
  5
100000D7
330
F42D3
100
AcDbDictionary
280
     1
  3
BTDETID
360
100000D8
  0
DICTIONARY
  5
100000E5
330
F42D4
100
AcDbDictionary
280
     1
  3
BTDETID
360
100000E6
  0
DICTIONARY
  5
100000E8
330
F42D5
100
AcDbDictionary
280
     1
  3
BTCYLORGN
360
100000EB
  3
BTCYLRADIUS
360
100000EC
  3
BTDETID
360
100000E9
  3
BTISCYL
360
100000EA
  0
DICTIONARY
  5
100000F8
330
F42D6
100
AcDbDictionary
280
     1
  3
BTDETID
360
100000F9
  0
DICTIONARY
  5
10000106
330
F42D7
100
AcDbDictionary
280
     1
  3
BTDETID
360
10000107
  0
DICTIONARY
  5
10000109
330
F42D8
100
AcDbDictionary
280
     1
  3
BTDETID
360
1000010A
  0
DICTIONARY
  5
1000010B
330
F42D9
100
AcDbDictionary
280
     1
  3
BTDETID
360
1000010C
  0
DICTIONARY
  5
1000010D
330
F42DA
100
AcDbDictionary
280
     1
  3
BTDETID
360
1000010E
  0
DICTIONARY
  5
1000010F
330
F42DB
100
AcDbDictionary
280
     1
  3
BTDETID
360
10000110
  0
DICTIONARY
  5
10000111
330
F42DC
100
AcDbDictionary
280
     1
  3
BTDETID
360
10000112
  0
DICTIONARY
  5
10000113
330
F42DD
100
AcDbDictionary
280
     1
  3
BTDETID
360
10000114
  0
DICTIONARY
  5
10000115
330
F42DE
100
AcDbDictionary
280
     1
  3
BTDETID
360
10000116
  0
DICTIONARY
  5
10000117
330
F42DF
100
AcDbDictionary
280
     1
  3
BTDETID
360
10000118
  0
DICTIONARY
  5
D
102
{ACAD_REACTORS
330
C
102
}
330
C
100
AcDbDictionary
  0
DICTIONARY
  5
1A
102
{ACAD_REACTORS
330
C
102
}
330
C
100
AcDbDictionary
  0
DICTIONARY
  5
43
102
{ACAD_REACTORS
330
C
102
}
330
C
100
AcDbDictionary
  3
BYBLOCK
350
45
  3
BYLAYER
350
44
  3
GLOBAL
350
46
  0
DICTIONARY
  5
6B
102
{ACAD_REACTORS
330
C
102
}
330
C
100
AcDbDictionary
  3
STANDARD
350
6C
  0
DICTIONARY
  5
17
102
{ACAD_REACTORS
330
C
102
}
330
C
100
AcDbDictionary
  3
STANDARD
350
18
  0
DICTIONARY
  5
19
102
{ACAD_REACTORS
330
C
102
}
330
C
100
AcDbDictionary
  0
DICTIONARY
  5
47
102
{ACAD_REACTORS
330
C
102
}
330
C
100
AcDbDictionary
  3
SCALE100_1
350
10000022
  3
SCALE10_1
350
1000001C
  3
SCALE12_1
350
1000001D
  3
SCALE16_1
350
1000001E
  3
SCALE1_1
350
10000005
  3
SCALE1_10
350
1000000C
  3
SCALE1_100
350
10000015
  3
SCALE1_12
350
1000000D
  3
SCALE1_16
350
1000000E
  3
SCALE1_2
350
10000006
  3
SCALE1_20
350
1000000F
  3
SCALE1_25
350
10000010
  3
SCALE1_3
350
10000007
  3
SCALE1_32
350
10000011
  3
SCALE1_4
350
10000008
  3
SCALE1_40
350
10000012
  3
SCALE1_5
350
10000009
  3
SCALE1_50
350
10000013
  3
SCALE1_6
350
1000000A
  3
SCALE1_8
350
1000000B
  3
SCALE1_80
350
10000014
  3
SCALE20_1
350
1000001F
  3
SCALE2_1
350
10000016
  3
SCALE32_1
350
10000020
  3
SCALE3_1
350
10000017
  3
SCALE4_1
350
10000018
  3
SCALE50_1
350
10000021
  3
SCALE5_1
350
10000019
  3
SCALE6_1
350
1000001A
  3
SCALE8_1
350
1000001B
  0
DICTIONARY
  5
2A
102
{ACAD_REACTORS
330
C
102
}
330
C
100
AcDbDictionary
  3
2DWIREFRAME
350
2F
  3
BASIC
350
32
  3
BRIGHTEN
350
36
  3
COLORCHANGE
350
3A
  3
CONCEPTUAL
350
34
  3
DIM
350
35
  3
EDGECOLOROFF
350
3D
  3
FACEPATTERN
350
39
  3
FLAT
350
2B
  3
FLATWITHEDGES
350
2C
  3
GOURAUD
350
2D
  3
GOURAUDWITHEDGES
350
2E
  3
HIDDEN
350
31
  3
JITTEROFF
350
3B
  3
LINEPATTERN
350
38
  3
OVERHANGOFF
350
3C
  3
REALISTIC
350
33
  3
SHADED
350
42
  3
SHADED_WITH_EDGES
350
41
  3
SHADES_OF_GRAY
350
3E
  3
SKETCHY
350
3F
  3
THICKEN
350
37
  3
WIREFRAME
350
30
  3
X-RAY
350
40
  0
DICTIONARY
  5
1000011B
102
{ACAD_REACTORS
330
C
102
}
330
C
100
AcDbDictionary
  3
CEPSNID
350
10000125
  3
CEPSNTYPE
350
10000124
  3
DIMSTYLEDATA
350
1000013B
  3
FINGERPRINTGUID
350
10000126
  3
HYPERLINKBASE
350
1000011E
  3
INSUNITS
350
10000123
  3
LAYOUTDICT
350
10000120
  3
LWETCUNION
350
10000122
  3
PLOTSETDICT
350
10000121
  3
PSVPSCALE
350
10000128
  3
PUCSBASE
350
1000012B
  3
PUCSORGBACK
350
10000131
  3
PUCSORGBOTTOM
350
1000012D
  3
PUCSORGFRONT
350
10000130
  3
PUCSORGLEFT
350
1000012E
  3
PUCSORGRIGHT
350
1000012F
  3
PUCSORGTOP
350
1000012C
  3
PUCSORTHOREF
350
10000129
  3
PUCSORTHOVIEW
350
1000012A
  3
STYLESHEET
350
1000011F
  3
TSTACKALIGN
350
1000011C
  3
TSTACKSIZE
350
1000011D
  3
UCSBASE
350
10000134
  3
UCSORGBACK
350
1000013A
  3
UCSORGBOTTOM
350
10000136
  3
UCSORGFRONT
350
10000139
  3
UCSORGLEFT
350
10000137
  3
UCSORGRIGHT
350
10000138
  3
UCSORGTOP
350
10000135
  3
UCSORTHOREF
350
10000132
  3
UCSORTHOVIEW
350
10000133
  3
VERSIONGUID
350
10000127
  0
DICTIONARY
  5
1000013C
102
{ACAD_REACTORS
330
C
102
}
330
C
100
AcDbDictionary
  3
CANNOSCALE
350
10000146
  3
CMLEADERSTYLE
350
1000013E
  3
CTABLESTYLE
350
1000013D
  3
DIMASSOC
350
10000141
  3
HIDETEXT
350
10000142
  3
MSLTSCALE
350
10000147
  0
XRECORD
  5
10000143
102
{ACAD_REACTORS
330
C
102
}
330
C
100
AcDbXrecord
  1
DWGPROPS COOKIE
  2

  3

  4

  6
File was created by BTDwgCreate
  7

  8

  9

300
=
301
=
302
=
303
=
304
=
305
=
306
=
307
=
308
=
309
=
 40
0.0
 41
2457590.523784722
 42
2457590.523784722
  1

 90
        0
  0
DICTIONARY
  5
10000001
102
{ACAD_REACTORS
330
C
102
}
330
C
100
AcDbDictionary
280
     1
  3
DWGGEN_VERSION
360
10000002
  3
FIRST_ANGLE
360
10000004
  0
XRECORD
  5
10000145
102
{ACAD_REACTORS
330
10000144
102
}
330
10000144
100
AcDbXrecord
102
VTR_0.000_0.000_1.000_1.000_GRIDDISPLAY
 70
     3
102
VTR_0.000_0.000_1.000_1.000_GRIDMAJOR
 70
     5
102
VTR_0.000_0.000_1.000_1.000_DEFAULTLIGHTING
280
     1
102
VTR_0.000_0.000_1.000_1.000_DEFAULTLIGHTINGTYPE
 70
     1
102
VTR_0.000_0.000_1.000_1.000_BRIGHTNESS
141
0.0
102
VTR_0.000_0.000_1.000_1.000_CONTRAST
142
0.0
  0
SORTENTSTABLE
  5
1000011A
102
{ACAD_REACTORS
330
10000119
102
}
330
10000119
100
AcDbSortentsTable
330
1F
  0
XRECORD
  5
10000036
102
{ACAD_REACTORS
330
10000035
102
}
330
10000035
100
AcDbXrecord
1000
KF5B
  0
XRECORD
  5
10000038
102
{ACAD_REACTORS
330
10000037
102
}
330
10000037
100
AcDbXrecord
1000
KF1B
  0
XRECORD
  5
1000003A
102
{ACAD_REACTORS
330
10000039
102
}
330
10000039
100
AcDbXrecord
1000
KFJC
  0
XRECORD
  5
1000003C
102
{ACAD_REACTORS
330
1000003B
102
}
330
1000003B
100
AcDbXrecord
1000
KFxB
  0
XRECORD
  5
1000003E
102
{ACAD_REACTORS
330
1000003D
102
}
330
1000003D
100
AcDbXrecord
1000
KFdB
  0
XRECORD
  5
10000040
102
{ACAD_REACTORS
330
1000003F
102
}
330
1000003F
100
AcDbXrecord
1000
KFZB
  0
XRECORD
  5
10000042
102
{ACAD_REACTORS
330
10000041
102
}
330
10000041
100
AcDbXrecord
1000
KFVB
  0
XRECORD
  5
10000044
102
{ACAD_REACTORS
330
10000043
102
}
330
10000043
100
AcDbXrecord
1000
KFFB
  0
XRECORD
  5
10000046
102
{ACAD_REACTORS
330
10000045
102
}
330
10000045
100
AcDbXrecord
1000
KFBB
  0
XRECORD
  5
10000048
102
{ACAD_REACTORS
330
10000047
102
}
330
10000047
100
AcDbXrecord
1000
JFx
  0
XRECORD
  5
1000004A
102
{ACAD_REACTORS
330
10000049
102
}
330
10000049
100
AcDbXrecord
1000
JFZ
  0
XRECORD
  5
1000004C
102
{ACAD_REACTORS
330
1000004B
102
}
330
1000004B
100
AcDbXrecord
1000
JFJ
  0
XRECORD
  5
1000004E
102
{ACAD_REACTORS
330
1000004D
102
}
330
1000004D
100
AcDbXrecord
1000
JFB
  0
XRECORD
  5
10000050
102
{ACAD_REACTORS
330
1000004F
102
}
330
1000004F
100
AcDbXrecord
1000
KFJD
  0
XRECORD
  5
10000052
102
{ACAD_REACTORS
330
10000051
102
}
330
10000051
100
AcDbXrecord
1000
JFR
  0
XRECORD
  5
10000054
102
{ACAD_REACTORS
330
10000053
102
}
330
10000053
100
AcDbXrecord
1000
KFJB
  0
XRECORD
  5
10000056
102
{ACAD_REACTORS
330
10000055
102
}
330
10000055
100
AcDbXrecord
1000
KFNC
  0
XRECORD
  5
10000058
102
{ACAD_REACTORS
330
10000057
102
}
330
10000057
100
AcDbXrecord
1000
KFtB
  0
XRECORD
  5
1000005A
102
{ACAD_REACTORS
330
10000059
102
}
330
10000059
100
AcDbXrecord
1000
JFN
  0
XRECORD
  5
1000005C
102
{ACAD_REACTORS
330
1000005B
102
}
330
1000005B
100
AcDbXrecord
1000
KFNB
  0
XRECORD
  5
1000005E
102
{ACAD_REACTORS
330
1000005D
102
}
330
1000005D
100
AcDbXrecord
1000
JF5
  0
XRECORD
  5
10000060
102
{ACAD_REACTORS
330
1000005F
102
}
330
1000005F
100
AcDbXrecord
1000
JFp
  0
XRECORD
  5
10000062
102
{ACAD_REACTORS
330
10000061
102
}
330
10000061
100
AcDbXrecord
1000
KFFD
  0
XRECORD
  5
10000064
102
{ACAD_REACTORS
330
10000063
102
}
330
10000063
100
AcDbXrecord
1000
KFlB
  0
XRECORD
  5
10000066
102
{ACAD_REACTORS
330
10000065
102
}
330
10000065
100
AcDbXrecord
1000
JFl
  0
XRECORD
  5
10000068
102
{ACAD_REACTORS
330
10000067
102
}
330
10000067
100
AcDbXrecord
1000
KFhB
  0
XRECORD
  5
1000006A
102
{ACAD_REACTORS
330
10000069
102
}
330
10000069
100
AcDbXrecord
1000
KF9B
  0
XRECORD
  5
1000006C
102
{ACAD_REACTORS
330
1000006B
102
}
330
1000006B
100
AcDbXrecord
1000
JFV
  0
XRECORD
  5
10000076
102
{ACAD_REACTORS
330
10000075
102
}
330
10000075
100
AcDbXrecord
1000
KF9C
  0
XRECORD
  5
10000084
102
{ACAD_REACTORS
330
10000083
102
}
330
10000083
100
AcDbXrecord
1000
KFRC
  0
XRECORD
  5
10000089
102
{ACAD_REACTORS
330
10000086
102
}
330
10000086
100
AcDbXrecord
1040
0.0
1040
0.0
1040
0.0
  0
XRECORD
  5
1000008A
102
{ACAD_REACTORS
330
10000086
102
}
330
10000086
100
AcDbXrecord
 40
0.0
  0
XRECORD
  5
10000087
102
{ACAD_REACTORS
330
10000086
102
}
330
10000086
100
AcDbXrecord
1000
JFh
  0
ACAD_PROXY_OBJECT
  5
10000088
102
{ACAD_REACTORS
330
10000086
102
}
330
10000086
100
AcDbProxyObject
 90
      499
 91
      509
 93
       34
310
40C8804040
  0
XRECORD
  5
10000096
102
{ACAD_REACTORS
330
10000095
102
}
330
10000095
100
AcDbXrecord
1000
KFZC
  0
XRECORD
  5
1000009B
102
{ACAD_REACTORS
330
10000098
102
}
330
10000098
100
AcDbXrecord
1040
0.0
1040
0.0
1040
0.0
  0
XRECORD
  5
1000009C
102
{ACAD_REACTORS
330
10000098
102
}
330
10000098
100
AcDbXrecord
 40
0.0
  0
XRECORD
  5
10000099
102
{ACAD_REACTORS
330
10000098
102
}
330
10000098
100
AcDbXrecord
1000
JFF
  0
ACAD_PROXY_OBJECT
  5
1000009A
102
{ACAD_REACTORS
330
10000098
102
}
330
10000098
100
AcDbProxyObject
 90
      499
 91
      509
 93
       34
310
40C8804040
  0
XRECORD
  5
100000A0
102
{ACAD_REACTORS
330
1000009D
102
}
330
1000009D
100
AcDbXrecord
1040
0.0
1040
0.0
1040
0.0
  0
XRECORD
  5
100000A1
102
{ACAD_REACTORS
330
1000009D
102
}
330
1000009D
100
AcDbXrecord
 40
0.0
  0
XRECORD
  5
1000009E
102
{ACAD_REACTORS
330
1000009D
102
}
330
1000009D
100
AcDbXrecord
1000
KFZD
  0
ACAD_PROXY_OBJECT
  5
1000009F
102
{ACAD_REACTORS
330
1000009D
102
}
330
1000009D
100
AcDbProxyObject
 90
      499
 91
      509
 93
       34
310
40C8804040
  0
XRECORD
  5
100000AE
102
{ACAD_REACTORS
330
100000AD
102
}
330
100000AD
100
AcDbXrecord
1000
KFxC
  0
XRECORD
  5
100000B1
102
{ACAD_REACTORS
330
100000B0
102
}
330
100000B0
100
AcDbXrecord
1000
JF1
  0
XRECORD
  5
100000B3
102
{ACAD_REACTORS
330
100000B2
102
}
330
100000B2
100
AcDbXrecord
1000
JFd
  0
XRECORD
  5
100000BD
102
{ACAD_REACTORS
330
100000BC
102
}
330
100000BC
100
AcDbXrecord
1000
KF1C
  0
XRECORD
  5
100000CB
102
{ACAD_REACTORS
330
100000CA
102
}
330
100000CA
100
AcDbXrecord
1000
KFVC
  0
XRECORD
  5
100000D8
102
{ACAD_REACTORS
330
100000D7
102
}
330
100000D7
100
AcDbXrecord
1000
KFdC
  0
XRECORD
  5
100000E6
102
{ACAD_REACTORS
330
100000E5
102
}
330
100000E5
100
AcDbXrecord
1000
KF5C
  0
XRECORD
  5
100000EB
102
{ACAD_REACTORS
330
100000E8
102
}
330
100000E8
100
AcDbXrecord
1040
0.0
1040
0.0
1040
0.0
  0
XRECORD
  5
100000EC
102
{ACAD_REACTORS
330
100000E8
102
}
330
100000E8
100
AcDbXrecord
 40
0.0
  0
XRECORD
  5
100000E9
102
{ACAD_REACTORS
330
100000E8
102
}
330
100000E8
100
AcDbXrecord
1000
KFhC
  0
ACAD_PROXY_OBJECT
  5
100000EA
102
{ACAD_REACTORS
330
100000E8
102
}
330
100000E8
100
AcDbProxyObject
 90
      499
 91
      509
 93
       34
310
40C8804040
  0
XRECORD
  5
100000F9
102
{ACAD_REACTORS
330
100000F8
102
}
330
100000F8
100
AcDbXrecord
1000
KFlC
  0
XRECORD
  5
10000107
102
{ACAD_REACTORS
330
10000106
102
}
330
10000106
100
AcDbXrecord
1000
KFpC
  0
XRECORD
  5
1000010A
102
{ACAD_REACTORS
330
10000109
102
}
330
10000109
100
AcDbXrecord
1000
KFtC
  0
XRECORD
  5
1000010C
102
{ACAD_REACTORS
330
1000010B
102
}
330
1000010B
100
AcDbXrecord
1000
KFBD
  0
XRECORD
  5
1000010E
102
{ACAD_REACTORS
330
1000010D
102
}
330
1000010D
100
AcDbXrecord
1000
KFND
  0
XRECORD
  5
10000110
102
{ACAD_REACTORS
330
1000010F
102
}
330
1000010F
100
AcDbXrecord
1000
KFRD
  0
XRECORD
  5
10000112
102
{ACAD_REACTORS
330
10000111
102
}
330
10000111
100
AcDbXrecord
1000
KFVD
  0
XRECORD
  5
10000114
102
{ACAD_REACTORS
330
10000113
102
}
330
10000113
100
AcDbXrecord
1000
KFdD
  0
XRECORD
  5
10000116
102
{ACAD_REACTORS
330
10000115
102
}
330
10000115
100
AcDbXrecord
1000
JFt
  0
XRECORD
  5
10000118
102
{ACAD_REACTORS
330
10000117
102
}
330
10000117
100
AcDbXrecord
1000
JF9
  0
MATERIAL
  5
45
102
{ACAD_REACTORS
330
43
102
}
102
{ACAD_XDICTIONARY
360
1000014A
102
}
330
43
100
AcDbMaterial
  1
BYBLOCK
  0
MATERIAL
  5
44
102
{ACAD_REACTORS
330
43
102
}
102
{ACAD_XDICTIONARY
360
10000148
102
}
330
43
100
AcDbMaterial
  1
BYLAYER
  0
MATERIAL
  5
46
102
{ACAD_REACTORS
330
43
102
}
102
{ACAD_XDICTIONARY
360
1000014C
102
}
330
43
100
AcDbMaterial
  1
GLOBAL
  0
ACAD_PROXY_OBJECT
  5
6C
102
{ACAD_REACTORS
330
6B
102
}
330
6B
100
AcDbProxyObject
 90
      499
 91
      505
 93
      610
310
40901902A4063FBFFFFFE056BD1B81E855B9FC0AD7A3703D0AD73F4214DD185B99185C9900AD7A3703D0AC73F90141901A02B5E8DC0F42B1CFC02B5E8DC0F42B1CFE5764000000000000300FC0
340
14
340
0
340
11
340
0
 94
        0
1001
ACAD_MLEADERVER
1070
     2
  0
MLINESTYLE
  5
18
102
{ACAD_REACTORS
330
17
102
}
330
17
100
AcDbMlineStyle
  2
Standard
 70
     0
  3

 62
   256
 51
90.0
 52
90.0
 71
     2
 49
0.5
 62
   256
  6
BYLAYER
 49
-0.5
 62
   256
  6
BYLAYER
  0
ACAD_PROXY_OBJECT
  5
10000022
102
{ACAD_REACTORS
330
47
102
}
330
47
100
AcDbProxyObject
 90
      499
 91
      503
 93
      121
310
9053130303A310000000000001650100
  0
ACAD_PROXY_OBJECT
  5
1000001C
102
{ACAD_REACTORS
330
47
102
}
330
47
100
AcDbProxyObject
 90
      499
 91
      503
 93
      113
310
90431303A310000000000000910100
  0
ACAD_PROXY_OBJECT
  5
1000001D
102
{ACAD_REACTORS
330
47
102
}
330
47
100
AcDbProxyObject
 90
      499
 91
      503
 93
      113
310
90431323A310000000000000A10100
  0
ACAD_PROXY_OBJECT
  5
1000001E
102
{ACAD_REACTORS
330
47
102
}
330
47
100
AcDbProxyObject
 90
      499
 91
      503
 93
      113
310
90431363A310000000000000C10100
  0
ACAD_PROXY_OBJECT
  5
10000005
102
{ACAD_REACTORS
330
47
102
}
330
47
100
AcDbProxyObject
 90
      499
 91
      503
 93
       41
310
903313A31500
  0
ACAD_PROXY_OBJECT
  5
1000000C
102
{ACAD_REACTORS
330
47
102
}
330
47
100
AcDbProxyObject
 90
      499
 91
      503
 93
      113
310
904313A31304000000000000244000
  0
ACAD_PROXY_OBJECT
  5
10000015
102
{ACAD_REACTORS
330
47
102
}
330
47
100
AcDbProxyObject
 90
      499
 91
      503
 93
      121
310
905313A3130304000000000000594000
  0
ACAD_PROXY_OBJECT
  5
1000000D
102
{ACAD_REACTORS
330
47
102
}
330
47
100
AcDbProxyObject
 90
      499
 91
      503
 93
      113
310
904313A31324000000000000284000
  0
ACAD_PROXY_OBJECT
  5
1000000E
102
{ACAD_REACTORS
330
47
102
}
330
47
100
AcDbProxyObject
 90
      499
 91
      503
 93
      113
310
904313A31364000000000000304000
  0
ACAD_PROXY_OBJECT
  5
10000006
102
{ACAD_REACTORS
330
47
102
}
330
47
100
AcDbProxyObject
 90
      499
 91
      503
 93
      105
310
903313A324000000000000004000
  0
ACAD_PROXY_OBJECT
  5
1000000F
102
{ACAD_REACTORS
330
47
102
}
330
47
100
AcDbProxyObject
 90
      499
 91
      503
 93
      113
310
904313A32304000000000000344000
  0
ACAD_PROXY_OBJECT
  5
10000010
102
{ACAD_REACTORS
330
47
102
}
330
47
100
AcDbProxyObject
 90
      499
 91
      503
 93
      113
310
904313A32354000000000000394000
  0
ACAD_PROXY_OBJECT
  5
10000007
102
{ACAD_REACTORS
330
47
102
}
330
47
100
AcDbProxyObject
 90
      499
 91
      503
 93
      105
310
903313A334000000000000084000
  0
ACAD_PROXY_OBJECT
  5
10000011
102
{ACAD_REACTORS
330
47
102
}
330
47
100
AcDbProxyObject
 90
      499
 91
      503
 93
      113
310
904313A33324000000000000404000
  0
ACAD_PROXY_OBJECT
  5
10000008
102
{ACAD_REACTORS
330
47
102
}
330
47
100
AcDbProxyObject
 90
      499
 91
      503
 93
      105
310
903313A344000000000000104000
  0
ACAD_PROXY_OBJECT
  5
10000012
102
{ACAD_REACTORS
330
47
102
}
330
47
100
AcDbProxyObject
 90
      499
 91
      503
 93
      113
310
904313A34304000000000000444000
  0
ACAD_PROXY_OBJECT
  5
10000009
102
{ACAD_REACTORS
330
47
102
}
330
47
100
AcDbProxyObject
 90
      499
 91
      503
 93
      105
310
903313A354000000000000144000
  0
ACAD_PROXY_OBJECT
  5
10000013
102
{ACAD_REACTORS
330
47
102
}
330
47
100
AcDbProxyObject
 90
      499
 91
      503
 93
      113
310
904313A35304000000000000494000
  0
ACAD_PROXY_OBJECT
  5
1000000A
102
{ACAD_REACTORS
330
47
102
}
330
47
100
AcDbProxyObject
 90
      499
 91
      503
 93
      105
310
903313A364000000000000184000
  0
ACAD_PROXY_OBJECT
  5
1000000B
102
{ACAD_REACTORS
330
47
102
}
330
47
100
AcDbProxyObject
 90
      499
 91
      503
 93
      105
310
903313A384000000000000204000
  0
ACAD_PROXY_OBJECT
  5
10000014
102
{ACAD_REACTORS
330
47
102
}
330
47
100
AcDbProxyObject
 90
      499
 91
      503
 93
      113
310
904313A38304000000000000544000
  0
ACAD_PROXY_OBJECT
  5
1000001F
102
{ACAD_REACTORS
330
47
102
}
330
47
100
AcDbProxyObject
 90
      499
 91
      503
 93
      113
310
90432303A310000000000000D10100
  0
ACAD_PROXY_OBJECT
  5
10000016
102
{ACAD_REACTORS
330
47
102
}
330
47
100
AcDbProxyObject
 90
      499
 91
      503
 93
      105
310
903323A310000000000000010100
  0
ACAD_PROXY_OBJECT
  5
10000020
102
{ACAD_REACTORS
330
47
102
}
330
47
100
AcDbProxyObject
 90
      499
 91
      503
 93
      113
310
90433323A310000000000001010100
  0
ACAD_PROXY_OBJECT
  5
10000017
102
{ACAD_REACTORS
330
47
102
}
330
47
100
AcDbProxyObject
 90
      499
 91
      503
 93
      105
310
903333A310000000000000210100
  0
ACAD_PROXY_OBJECT
  5
10000018
102
{ACAD_REACTORS
330
47
102
}
330
47
100
AcDbProxyObject
 90
      499
 91
      503
 93
      105
310
903343A310000000000000410100
  0
ACAD_PROXY_OBJECT
  5
10000021
102
{ACAD_REACTORS
330
47
102
}
330
47
100
AcDbProxyObject
 90
      499
 91
      503
 93
      113
310
90435303A310000000000001250100
  0
ACAD_PROXY_OBJECT
  5
10000019
102
{ACAD_REACTORS
330
47
102
}
330
47
100
AcDbProxyObject
 90
      499
 91
      503
 93
      105
310
903353A310000000000000510100
  0
ACAD_PROXY_OBJECT
  5
1000001A
102
{ACAD_REACTORS
330
47
102
}
330
47
100
AcDbProxyObject
 90
      499
 91
      503
 93
      105
310
903363A310000000000000610100
  0
ACAD_PROXY_OBJECT
  5
1000001B
102
{ACAD_REACTORS
330
47
102
}
330
47
100
AcDbProxyObject
 90
      499
 91
      503
 93
      105
310
903383A310000000000000810100
  0
ACAD_PROXY_OBJECT
  5
2F
102
{ACAD_REACTORS
330
2A
102
}
330
2A
100
AcDbProxyObject
 90
      499
 91
      501
 93
      436
310
42CC9915DA5C99599C985B595049028333333333333E33F0000000000000F90107901411070040501600405405064090741402480A0340
1001
ACAD
1000
AcDbSavedByObjectVersion
1070
     0
  0
ACAD_PROXY_OBJECT
  5
32
102
{ACAD_REACTORS
330
2A
102
}
330
2A
100
AcDbProxyObject
 90
      499
 91
      501
 93
      388
310
4150985CDA58D07406404333333333333E33F0000000000000F90107A41107004050150841D405064090741402480A0350
1001
ACAD
1000
AcDbSavedByObjectVersion
1070
     0
  0
ACAD_PROXY_OBJECT
  5
36
102
{ACAD_REACTORS
330
2A
102
}
330
2A
100
AcDbProxyObject
 90
      499
 91
      501
 93
      428
310
42109C9A59DA1D195B90C409028333333333333E33F0000000000000F9010790141107004050150841D405064090741402480A029950
1001
ACAD
1000
AcDbSavedByObjectVersion
1070
     0
  0
ACAD_PROXY_OBJECT
  5
3A
102
{ACAD_REACTORS
330
2A
102
}
330
2A
100
AcDbProxyObject
 90
      499
 91
      501
 93
      452
310
42D0DBDB1BDC90DA185B99D95104090240C333333333333E33F0000000000000F90108901411070040501508421405064090741402480A0350
1001
ACAD
1000
AcDbSavedByObjectVersion
1070
     0
  0
ACAD_PROXY_OBJECT
  5
34
102
{ACAD_REACTORS
330
2A
102
}
330
2A
100
AcDbProxyObject
 90
      499
 91
      501
 93
      500
310
4290DBDB98D95C1D1D585B10940D028333333333333E33F0000000000000F90107902409070040501000000000018199010841D405064090740C02480A0340
1001
ACAD
1000
AcDbSavedByObjectVersion
1070
     0
  0
ACAD_PROXY_OBJECT
  5
35
102
{ACAD_REACTORS
330
2A
102
}
330
2A
100
AcDbProxyObject
 90
      499
 91
      501
 93
      412
310
40D11A5B50B409028333333333333E33F0000000000000F9010790141107004050150841D405064090741402480A02677FFFFFD0
1001
ACAD
1000
AcDbSavedByObjectVersion
1070
     0
  0
ACAD_PROXY_OBJECT
  5
3D
102
{ACAD_REACTORS
330
2A
102
}
330
2A
100
AcDbProxyObject
 90
      499
 91
      501
 93
      452
310
43115919D950DBDB1BDC93D999916409028333333333333E33F0000000000000F9010790141107004050150841D405064090741402480A0350
1001
ACAD
1000
AcDbSavedByObjectVersion
1070
     0
  0
ACAD_PROXY_OBJECT
  5
39
102
{ACAD_REACTORS
330
2A
102
}
330
2A
100
AcDbProxyObject
 90
      499
 91
      501
 93
      444
310
42D19858D95C185D1D195C9B90F409028333333333333E33F0000000000000F9010790141107004050150841D405064090741402480A0350
1001
ACAD
1000
AcDbSavedByObjectVersion
1070
     0
  0
ACAD_PROXY_OBJECT
  5
2B
102
{ACAD_REACTORS
330
2A
102
}
330
2A
100
AcDbProxyObject
 90
      499
 91
      501
 93
      380
310
41119B185D240901404333333333333E33F0000000000000F9010740A907004050150841D405064090741402480A1B50
1001
ACAD
1000
AcDbSavedByObjectVersion
1070
     0
  0
ACAD_PROXY_OBJECT
  5
2C
102
{ACAD_REACTORS
330
2A
102
}
330
2A
100
AcDbProxyObject
 90
      499
 91
      501
 93
      468
310
43519B185D15DA5D1A115919D95CD0140901404333333333333E33F0000000000000F90107409019070040501600405405064090741402480A1B50
1001
ACAD
1000
AcDbSavedByObjectVersion
1070
     0
  0
ACAD_PROXY_OBJECT
  5
2D
102
{ACAD_REACTORS
330
2A
102
}
330
2A
100
AcDbProxyObject
 90
      499
 91
      501
 93
      404
310
41D1DBDD5C985D5910240902404333333333333E33F0000000000000F9010740A9070040501641D405064090741402480A1B50
1001
ACAD
1000
AcDbSavedByObjectVersion
1070
     0
  0
ACAD_PROXY_OBJECT
  5
2E
102
{ACAD_REACTORS
330
2A
102
}
330
2A
100
AcDbProxyObject
 90
      499
 91
      501
 93
      492
310
4411DBDD5C985D5915DA5D1A115919D95CD0340902404333333333333E33F0000000000000F90107409019070040501600405405064090741402480A1B50
1001
ACAD
1000
AcDbSavedByObjectVersion
1070
     0
  0
ACAD_PROXY_OBJECT
  5
31
102
{ACAD_REACTORS
330
2A
102
}
330
2A
100
AcDbProxyObject
 90
      499
 91
      501
 93
      476
310
41921A5919195B90640502408333333333333E33F0000000000000F901079024090700405020000000000001110200405405064090740C02480A0340
1001
ACAD
1000
AcDbSavedByObjectVersion
1070
     0
  0
ACAD_PROXY_OBJECT
  5
3B
102
{ACAD_REACTORS
330
2A
102
}
330
2A
100
AcDbProxyObject
 90
      499
 91
      501
 93
      428
310
42529A5D1D195C93D999914409028333333333333E33F0000000000000F9010790141107004050150A41D405064090741402480A0350
1001
ACAD
1000
AcDbSavedByObjectVersion
1070
     0
  0
ACAD_PROXY_OBJECT
  5
38
102
{ACAD_REACTORS
330
2A
102
}
330
2A
100
AcDbProxyObject
 90
      499
 91
      501
 93
      444
310
42D31A5B995C185D1D195C9B90E409028333333333333E33F0000000000000F9010790141107004050750841D405064090741402483A0350
1001
ACAD
1000
AcDbSavedByObjectVersion
1070
     0
  0
ACAD_PROXY_OBJECT
  5
3C
102
{ACAD_REACTORS
330
2A
102
}
330
2A
100
AcDbProxyObject
 90
      499
 91
      501
 93
      444
310
42D3DD995C9A185B99D3D999915409028333333333333E33F0000000000000F9010790141107004050150941D405064090741402480A0350
1001
ACAD
1000
AcDbSavedByObjectVersion
1070
     0
  0
ACAD_PROXY_OBJECT
  5
33
102
{ACAD_REACTORS
330
2A
102
}
330
2A
100
AcDbProxyObject
 90
      499
 91
      501
 93
      428
310
425499585B1A5CDD1A58D08409038333333333333E33F0000000000000F9010740A907004050150800405405064090740C02480A1B40
1001
ACAD
1000
AcDbSavedByObjectVersion
1070
     0
  0
ACAD_PROXY_OBJECT
  5
42
102
{ACAD_REACTORS
330
2A
102
}
330
2A
100
AcDbProxyObject
 90
      499
 91
      501
 93
      420
310
4194DA1859195911B40902404333333333333E33F0000000000000F9010740A41107004050150800405405064090840C02480A0B40
1001
ACAD
1000
AcDbSavedByObjectVersion
1070
     0
  0
ACAD_PROXY_OBJECT
  5
41
102
{ACAD_REACTORS
330
2A
102
}
330
2A
100
AcDbProxyObject
 90
      499
 91
      501
 93
      516
310
4454DA18591959081DDA5D1A08195919D95CD1A40902404333333333333E33F0000000000000F901074090142907004050250800405405064090740C02480A0B40
1001
ACAD
1000
AcDbSavedByObjectVersion
1070
     0
  0
ACAD_PROXY_OBJECT
  5
3E
102
{ACAD_REACTORS
330
2A
102
}
330
2A
100
AcDbProxyObject
 90
      499
 91
      501
 93
      532
310
4394DA1859195CC81BD98811DC985E5174090240C333333333333E33F0000000000000F901079024090741D01000000000000111010841D405064090740C02480A0340
1001
ACAD
1000
AcDbSavedByObjectVersion
1070
     0
  0
ACAD_PROXY_OBJECT
  5
3F
102
{ACAD_REACTORS
330
2A
102
}
330
2A
100
AcDbProxyObject
 90
      499
 91
      501
 93
      476
310
41D4DAD95D18DA1E51840502408333333333333E33F0000000000000F901079024090741D01000000000000111010B41D405064090741802480A0340
1001
ACAD
1000
AcDbSavedByObjectVersion
1070
     0
  0
ACAD_PROXY_OBJECT
  5
37
102
{ACAD_REACTORS
330
2A
102
}
330
2A
100
AcDbProxyObject
 90
      499
 91
      501
 93
      412
310
41D51A1A58DAD95B90D409028333333333333E33F0000000000000F9010790141107004050150C41D405064090741402480A0350
1001
ACAD
1000
AcDbSavedByObjectVersion
1070
     0
  0
ACAD_PROXY_OBJECT
  5
30
102
{ACAD_REACTORS
330
2A
102
}
330
2A
100
AcDbProxyObject
 90
      499
 91
      501
 93
      420
310
4255DA5C99599C985B595059028333333333333E33F0000000000000F90107901411070040501600405405064090740C02480A0340
1001
ACAD
1000
AcDbSavedByObjectVersion
1070
     0
  0
ACAD_PROXY_OBJECT
  5
40
102
{ACAD_REACTORS
330
2A
102
}
330
2A
100
AcDbProxyObject
 90
      499
 91
      501
 93
      404
310
41560B54985E51940902404000000000000E03F0000000000000F9010740501907004050150841D405064090740C02480A1B40
1001
ACAD
1000
AcDbSavedByObjectVersion
1070
     0
  0
XRECORD
  5
10000125
102
{ACAD_REACTORS
330
1000011B
102
}
330
1000011B
100
AcDbXrecord
340
0
  0
XRECORD
  5
10000124
102
{ACAD_REACTORS
330
1000011B
102
}
330
1000011B
100
AcDbXrecord
 90
        0
  0
XRECORD
  5
1000013B
102
{ACAD_REACTORS
330
1000011B
102
}
330
1000011B
100
AcDbXrecord
1000
DSTYLE
1002
{
1070
   340
340
11
1002
}
  0
XRECORD
  5
10000126
102
{ACAD_REACTORS
330
1000011B
102
}
330
1000011B
100
AcDbXrecord
  1
{DAF70F30-CF2F-9817-45CC-AFF5045FF9DD}
  0
XRECORD
  5
1000011E
102
{ACAD_REACTORS
330
1000011B
102
}
330
1000011B
100
AcDbXrecord
  1

  0
XRECORD
  5
10000123
102
{ACAD_REACTORS
330
1000011B
102
}
330
1000011B
100
AcDbXrecord
 90
        1
  0
XRECORD
  5
10000120
102
{ACAD_REACTORS
330
1000011B
102
}
330
1000011B
100
AcDbXrecord
340
1A
  0
XRECORD
  5
10000122
102
{ACAD_REACTORS
330
1000011B
102
}
330
1000011B
100
AcDbXrecord
 90
    10781
  0
XRECORD
  5
10000121
102
{ACAD_REACTORS
330
1000011B
102
}
330
1000011B
100
AcDbXrecord
340
19
  0
XRECORD
  5
10000128
102
{ACAD_REACTORS
330
1000011B
102
}
330
1000011B
100
AcDbXrecord
 40
0.0
  0
XRECORD
  5
1000012B
102
{ACAD_REACTORS
330
1000011B
102
}
330
1000011B
100
AcDbXrecord
340
0
  0
XRECORD
  5
10000131
102
{ACAD_REACTORS
330
1000011B
102
}
330
1000011B
100
AcDbXrecord
 10
0.0
 20
0.0
 30
0.0
  0
XRECORD
  5
1000012D
102
{ACAD_REACTORS
330
1000011B
102
}
330
1000011B
100
AcDbXrecord
 10
0.0
 20
0.0
 30
0.0
  0
XRECORD
  5
10000130
102
{ACAD_REACTORS
330
1000011B
102
}
330
1000011B
100
AcDbXrecord
 10
0.0
 20
0.0
 30
0.0
  0
XRECORD
  5
1000012E
102
{ACAD_REACTORS
330
1000011B
102
}
330
1000011B
100
AcDbXrecord
 10
0.0
 20
0.0
 30
0.0
  0
XRECORD
  5
1000012F
102
{ACAD_REACTORS
330
1000011B
102
}
330
1000011B
100
AcDbXrecord
 10
0.0
 20
0.0
 30
0.0
  0
XRECORD
  5
1000012C
102
{ACAD_REACTORS
330
1000011B
102
}
330
1000011B
100
AcDbXrecord
 10
0.0
 20
0.0
 30
0.0
  0
XRECORD
  5
10000129
102
{ACAD_REACTORS
330
1000011B
102
}
330
1000011B
100
AcDbXrecord
340
0
  0
XRECORD
  5
1000012A
102
{ACAD_REACTORS
330
1000011B
102
}
330
1000011B
100
AcDbXrecord
 70
     0
  0
XRECORD
  5
1000011F
102
{ACAD_REACTORS
330
1000011B
102
}
330
1000011B
100
AcDbXrecord
  1

  0
XRECORD
  5
1000011C
102
{ACAD_REACTORS
330
1000011B
102
}
330
1000011B
100
AcDbXrecord
 90
        1
  0
XRECORD
  5
1000011D
102
{ACAD_REACTORS
330
1000011B
102
}
330
1000011B
100
AcDbXrecord
 90
       70
  0
XRECORD
  5
10000134
102
{ACAD_REACTORS
330
1000011B
102
}
330
1000011B
100
AcDbXrecord
340
0
  0
XRECORD
  5
1000013A
102
{ACAD_REACTORS
330
1000011B
102
}
330
1000011B
100
AcDbXrecord
 10
0.0
 20
0.0
 30
0.0
  0
XRECORD
  5
10000136
102
{ACAD_REACTORS
330
1000011B
102
}
330
1000011B
100
AcDbXrecord
 10
0.0
 20
0.0
 30
0.0
  0
XRECORD
  5
10000139
102
{ACAD_REACTORS
330
1000011B
102
}
330
1000011B
100
AcDbXrecord
 10
0.0
 20
0.0
 30
0.0
  0
XRECORD
  5
10000137
102
{ACAD_REACTORS
330
1000011B
102
}
330
1000011B
100
AcDbXrecord
 10
0.0
 20
0.0
 30
0.0
  0
XRECORD
  5
10000138
102
{ACAD_REACTORS
330
1000011B
102
}
330
1000011B
100
AcDbXrecord
 10
0.0
 20
0.0
 30
0.0
  0
XRECORD
  5
10000135
102
{ACAD_REACTORS
330
1000011B
102
}
330
1000011B
100
AcDbXrecord
 10
0.0
 20
0.0
 30
0.0
  0
XRECORD
  5
10000132
102
{ACAD_REACTORS
330
1000011B
102
}
330
1000011B
100
AcDbXrecord
340
0
  0
XRECORD
  5
10000133
102
{ACAD_REACTORS
330
1000011B
102
}
330
1000011B
100
AcDbXrecord
 70
     0
  0
XRECORD
  5
10000127
102
{ACAD_REACTORS
330
1000011B
102
}
330
1000011B
100
AcDbXrecord
  1
{FAEB1C32-E019-11D5-929B-00C0DF256EC4}
  0
DICTIONARYVAR
  5
10000146
102
{ACAD_REACTORS
330
1000013C
102
}
330
1000013C
100
DictionaryVariables
280
     0
  1
1:1
  0
DICTIONARYVAR
  5
1000013E
102
{ACAD_REACTORS
330
1000013C
102
}
330
1000013C
100
DictionaryVariables
280
     0
  1
Standard
  0
DICTIONARYVAR
  5
1000013D
102
{ACAD_REACTORS
330
1000013C
102
}
330
1000013C
100
DictionaryVariables
280
     0
  1
Standard
  0
DICTIONARYVAR
  5
10000141
102
{ACAD_REACTORS
330
1000013C
102
}
330
1000013C
100
DictionaryVariables
280
     0
  1
2
  0
DICTIONARYVAR
  5
10000142
102
{ACAD_REACTORS
330
1000013C
102
}
330
1000013C
100
DictionaryVariables
280
     0
  1
1
  0
DICTIONARYVAR
  5
10000147
102
{ACAD_REACTORS
330
1000013C
102
}
330
1000013C
100
DictionaryVariables
280
     0
  1
1
  0
XRECORD
  5
10000002
102
{ACAD_REACTORS
330
10000001
102
}
330
10000001
100
AcDbXrecord
1040
61.0
  0
ACAD_PROXY_OBJECT
  5
10000004
102
{ACAD_REACTORS
330
10000001
102
}
330
10000001
100
AcDbProxyObject
 90
      499
 91
      509
 93
       34
310
40C8804000
  0
DICTIONARY
  5
1000014A
330
45
100
AcDbDictionary
280
     1
  3
ACAD_XREC_ROUNDTRIP
360
1000014B
  0
DICTIONARY
  5
10000148
330
44
100
AcDbDictionary
280
     1
  3
ACAD_XREC_ROUNDTRIP
360
10000149
  0
DICTIONARY
  5
1000014C
330
46
100
AcDbDictionary
280
     1
  3
ACAD_XREC_ROUNDTRIP
360
1000014D
  0
XRECORD
  5
1000014B
102
{ACAD_REACTORS
330
1000014A
102
}
330
1000014A
100
AcDbXrecord
102
MATERIAL
148
0.0
149
0.0
149
0.0
 93
        0
 94
      127
282
     0
 72
     1
 77
     1
171
     1
175
     1
179
     1
273
     0
  0
XRECORD
  5
10000149
102
{ACAD_REACTORS
330
10000148
102
}
330
10000148
100
AcDbXrecord
102
MATERIAL
148
0.0
149
0.0
149
0.0
 93
        0
 94
      127
282
     0
 72
     1
 77
     1
171
     1
175
     1
179
     1
273
     0
  0
XRECORD
  5
1000014D
102
{ACAD_REACTORS
330
1000014C
102
}
330
1000014C
100
AcDbXrecord
102
MATERIAL
148
0.0
149
0.0
149
0.0
 93
        0
 94
      127
282
     0
 72
     1
 77
     1
171
     1
175
     1
179
     1
273
     0
  0
ENDSEC
  0
EOF
